ISO-10303-21;
HEADER;
/* Generated by software containing ST-Developer
 * from STEP Tools, Inc. (www.steptools.com) 
 */

FILE_DESCRIPTION(
/* description */ ('PVC Bend 15°, Ø250, PN12,5'),
/* implementation_level */ '2;1');

FILE_NAME(
/* name */ 
'KLIIV250',
/* time_stamp */ '2022-05-11T16:00:53+02:00',
/* author */ ('COAB Solutions'),
/* organization */ ('GPA Flowsystem'),
/* preprocessor_version */ 'ST-DEVELOPER v18.1',
/* originating_system */ 'www.coabsolutions.com',
/* authorisation */ '');

FILE_SCHEMA (('AUTOMOTIVE_DESIGN { 1 0 10303 214 3 1 1 }'));
ENDSEC;

DATA;
#10=MECHANICAL_DESIGN_GEOMETRIC_PRESENTATION_REPRESENTATION('',(#13),#407);
#11=SHAPE_REPRESENTATION_RELATIONSHIP('SRR','None',#414,#12);
#12=ADVANCED_BREP_SHAPE_REPRESENTATION('',(#14),#406);
#13=STYLED_ITEM('',(#423),#14);
#14=MANIFOLD_SOLID_BREP('Solid2',#179);
#15=FACE_BOUND('',#47,.T.);
#16=FACE_BOUND('',#51,.T.);
#17=FACE_BOUND('',#54,.T.);
#18=FACE_BOUND('',#56,.T.);
#19=PLANE('',#210);
#20=PLANE('',#216);
#21=PLANE('',#221);
#22=PLANE('',#222);
#23=CYLINDRICAL_SURFACE('',#205,125.);
#24=CYLINDRICAL_SURFACE('',#208,139.5);
#25=CYLINDRICAL_SURFACE('',#211,125.);
#26=CYLINDRICAL_SURFACE('',#214,139.5);
#27=TOROIDAL_SURFACE('',#201,805.149935948865,125.);
#28=TOROIDAL_SURFACE('',#217,805.149935948865,110.5);
#29=FACE_OUTER_BOUND('',#41,.T.);
#30=FACE_OUTER_BOUND('',#42,.T.);
#31=FACE_OUTER_BOUND('',#43,.T.);
#32=FACE_OUTER_BOUND('',#44,.T.);
#33=FACE_OUTER_BOUND('',#45,.T.);
#34=FACE_OUTER_BOUND('',#46,.T.);
#35=FACE_OUTER_BOUND('',#48,.T.);
#36=FACE_OUTER_BOUND('',#49,.T.);
#37=FACE_OUTER_BOUND('',#50,.T.);
#38=FACE_OUTER_BOUND('',#52,.T.);
#39=FACE_OUTER_BOUND('',#53,.T.);
#40=FACE_OUTER_BOUND('',#55,.T.);
#41=EDGE_LOOP('',(#121,#122,#123,#124,#125));
#42=EDGE_LOOP('',(#126,#127,#128,#129,#130,#131));
#43=EDGE_LOOP('',(#132,#133,#134,#135,#136));
#44=EDGE_LOOP('',(#137,#138,#139,#140));
#45=EDGE_LOOP('',(#141,#142,#143,#144));
#46=EDGE_LOOP('',(#145));
#47=EDGE_LOOP('',(#146));
#48=EDGE_LOOP('',(#147,#148,#149,#150));
#49=EDGE_LOOP('',(#151,#152,#153,#154));
#50=EDGE_LOOP('',(#155));
#51=EDGE_LOOP('',(#156));
#52=EDGE_LOOP('',(#157,#158,#159,#160));
#53=EDGE_LOOP('',(#161));
#54=EDGE_LOOP('',(#162));
#55=EDGE_LOOP('',(#163));
#56=EDGE_LOOP('',(#164));
#57=B_SPLINE_CURVE_WITH_KNOTS('',3,(#286,#287,#288,#289,#290,#291,#292,
#293,#294,#295,#296,#297,#298,#299,#300,#301,#302,#303,#304,#305),
 .UNSPECIFIED.,.F.,.F.,(4,2,2,2,2,2,2,2,2,4),(-78.780894948703,-76.0160372517367,
-73.2520121452603,-68.365534914975,-63.4776977751258,-58.5904064819183,
-53.7063262731609,-48.8267787444183,-43.949119848736,-39.3955074089134),
 .UNSPECIFIED.);
#58=B_SPLINE_CURVE_WITH_KNOTS('',3,(#306,#307,#308,#309,#310,#311,#312,
#313,#314,#315,#316,#317,#318,#319,#320,#321,#322,#323,#324,#325),
 .UNSPECIFIED.,.F.,.F.,(4,2,2,2,2,2,2,2,2,4),(-39.3955074089134,-39.0679883665593,
-34.1812411545871,-29.2923921953061,-24.4058888718266,-19.5230174289842,
-14.6425205818001,-9.76264090851627,-4.8820752900869,0.),.UNSPECIFIED.);
#59=B_SPLINE_CURVE_WITH_KNOTS('',3,(#330,#331,#332,#333,#334,#335,#336,
#337,#338,#339,#340,#341,#342,#343,#344,#345,#346,#347,#348,#349),
 .UNSPECIFIED.,.F.,.F.,(4,2,2,2,2,2,2,2,2,4),(-39.393206640427,-38.7418333125212,
-33.7782136564072,-28.8210560437875,-23.8593103085996,-19.0492664713847,
-14.3215675835253,-9.61003951000884,-4.85327332970306,0.),.UNSPECIFIED.);
#60=B_SPLINE_CURVE_WITH_KNOTS('',3,(#350,#351,#352,#353,#354,#355,#356,
#357,#358,#359,#360,#361,#362,#363,#364,#365,#366,#367,#368,#369),
 .UNSPECIFIED.,.F.,.F.,(4,2,2,2,2,2,2,2,2,4),(-78.7787799143872,-75.7729374953991,
-72.8346801268782,-67.8713230463351,-62.9084299417457,-57.9116737773634,
-53.0575093768602,-48.3591862276557,-43.7221824006601,-39.393206640427),
 .UNSPECIFIED.);
#61=LINE('',#284,#67);
#62=LINE('',#372,#68);
#63=LINE('',#378,#69);
#64=LINE('',#382,#70);
#65=LINE('',#389,#71);
#66=LINE('',#393,#72);
#67=VECTOR('',#229,132.192588220497);
#68=VECTOR('',#236,132.192588220497);
#69=VECTOR('',#243,125.);
#70=VECTOR('',#248,139.5);
#71=VECTOR('',#257,125.);
#72=VECTOR('',#262,139.5);
#73=CIRCLE('',#200,139.5);
#74=CIRCLE('',#202,680.149935948865);
#75=CIRCLE('',#204,139.5);
#76=CIRCLE('',#206,125.);
#77=CIRCLE('',#207,125.);
#78=CIRCLE('',#209,139.5);
#79=CIRCLE('',#212,125.);
#80=CIRCLE('',#213,125.);
#81=CIRCLE('',#215,139.5);
#82=CIRCLE('',#218,110.5);
#83=CIRCLE('',#219,694.649935948865);
#84=CIRCLE('',#220,110.5);
#85=VERTEX_POINT('',#281);
#86=VERTEX_POINT('',#283);
#87=VERTEX_POINT('',#285);
#88=VERTEX_POINT('',#327);
#89=VERTEX_POINT('',#329);
#90=VERTEX_POINT('',#371);
#91=VERTEX_POINT('',#375);
#92=VERTEX_POINT('',#377);
#93=VERTEX_POINT('',#381);
#94=VERTEX_POINT('',#386);
#95=VERTEX_POINT('',#388);
#96=VERTEX_POINT('',#392);
#97=VERTEX_POINT('',#397);
#98=VERTEX_POINT('',#399);
#99=EDGE_CURVE('',#85,#85,#73,.T.);
#100=EDGE_CURVE('',#85,#86,#61,.T.);
#101=EDGE_CURVE('',#87,#86,#57,.T.);
#102=EDGE_CURVE('',#86,#87,#58,.T.);
#103=EDGE_CURVE('',#86,#88,#74,.T.);
#104=EDGE_CURVE('',#88,#89,#59,.T.);
#105=EDGE_CURVE('',#89,#88,#60,.T.);
#106=EDGE_CURVE('',#88,#90,#62,.T.);
#107=EDGE_CURVE('',#90,#90,#75,.T.);
#108=EDGE_CURVE('',#91,#91,#76,.T.);
#109=EDGE_CURVE('',#91,#92,#63,.T.);
#110=EDGE_CURVE('',#92,#92,#77,.T.);
#111=EDGE_CURVE('',#85,#93,#64,.T.);
#112=EDGE_CURVE('',#93,#93,#78,.T.);
#113=EDGE_CURVE('',#94,#94,#79,.T.);
#114=EDGE_CURVE('',#94,#95,#65,.T.);
#115=EDGE_CURVE('',#95,#95,#80,.T.);
#116=EDGE_CURVE('',#90,#96,#66,.T.);
#117=EDGE_CURVE('',#96,#96,#81,.T.);
#118=EDGE_CURVE('',#97,#97,#82,.T.);
#119=EDGE_CURVE('',#97,#98,#83,.T.);
#120=EDGE_CURVE('',#98,#98,#84,.T.);
#121=ORIENTED_EDGE('',*,*,#99,.T.);
#122=ORIENTED_EDGE('',*,*,#100,.T.);
#123=ORIENTED_EDGE('',*,*,#101,.F.);
#124=ORIENTED_EDGE('',*,*,#102,.F.);
#125=ORIENTED_EDGE('',*,*,#100,.F.);
#126=ORIENTED_EDGE('',*,*,#101,.T.);
#127=ORIENTED_EDGE('',*,*,#103,.T.);
#128=ORIENTED_EDGE('',*,*,#104,.T.);
#129=ORIENTED_EDGE('',*,*,#105,.T.);
#130=ORIENTED_EDGE('',*,*,#103,.F.);
#131=ORIENTED_EDGE('',*,*,#102,.T.);
#132=ORIENTED_EDGE('',*,*,#105,.F.);
#133=ORIENTED_EDGE('',*,*,#104,.F.);
#134=ORIENTED_EDGE('',*,*,#106,.T.);
#135=ORIENTED_EDGE('',*,*,#107,.T.);
#136=ORIENTED_EDGE('',*,*,#106,.F.);
#137=ORIENTED_EDGE('',*,*,#108,.F.);
#138=ORIENTED_EDGE('',*,*,#109,.T.);
#139=ORIENTED_EDGE('',*,*,#110,.F.);
#140=ORIENTED_EDGE('',*,*,#109,.F.);
#141=ORIENTED_EDGE('',*,*,#99,.F.);
#142=ORIENTED_EDGE('',*,*,#111,.T.);
#143=ORIENTED_EDGE('',*,*,#112,.F.);
#144=ORIENTED_EDGE('',*,*,#111,.F.);
#145=ORIENTED_EDGE('',*,*,#112,.T.);
#146=ORIENTED_EDGE('',*,*,#110,.T.);
#147=ORIENTED_EDGE('',*,*,#113,.T.);
#148=ORIENTED_EDGE('',*,*,#114,.T.);
#149=ORIENTED_EDGE('',*,*,#115,.T.);
#150=ORIENTED_EDGE('',*,*,#114,.F.);
#151=ORIENTED_EDGE('',*,*,#107,.F.);
#152=ORIENTED_EDGE('',*,*,#116,.T.);
#153=ORIENTED_EDGE('',*,*,#117,.T.);
#154=ORIENTED_EDGE('',*,*,#116,.F.);
#155=ORIENTED_EDGE('',*,*,#117,.F.);
#156=ORIENTED_EDGE('',*,*,#115,.F.);
#157=ORIENTED_EDGE('',*,*,#118,.F.);
#158=ORIENTED_EDGE('',*,*,#119,.T.);
#159=ORIENTED_EDGE('',*,*,#120,.T.);
#160=ORIENTED_EDGE('',*,*,#119,.F.);
#161=ORIENTED_EDGE('',*,*,#108,.T.);
#162=ORIENTED_EDGE('',*,*,#118,.T.);
#163=ORIENTED_EDGE('',*,*,#113,.F.);
#164=ORIENTED_EDGE('',*,*,#120,.F.);
#165=CONICAL_SURFACE('',#199,132.192588220497,0.785398163397438);
#166=CONICAL_SURFACE('',#203,132.192588220497,0.785398163397448);
#167=ADVANCED_FACE('',(#29),#165,.T.);
#168=ADVANCED_FACE('',(#30),#27,.T.);
#169=ADVANCED_FACE('',(#31),#166,.T.);
#170=ADVANCED_FACE('',(#32),#23,.F.);
#171=ADVANCED_FACE('',(#33),#24,.T.);
#172=ADVANCED_FACE('',(#34,#15),#19,.T.);
#173=ADVANCED_FACE('',(#35),#25,.F.);
#174=ADVANCED_FACE('',(#36),#26,.T.);
#175=ADVANCED_FACE('',(#37,#16),#20,.F.);
#176=ADVANCED_FACE('',(#38),#28,.F.);
#177=ADVANCED_FACE('',(#39,#17),#21,.T.);
#178=ADVANCED_FACE('',(#40,#18),#22,.F.);
#179=CLOSED_SHELL('',(#167,#168,#169,#170,#171,#172,#173,#174,#175,#176,
#177,#178));
#180=DERIVED_UNIT_ELEMENT(#182,1.);
#181=DERIVED_UNIT_ELEMENT(#409,-3.);
#182=(
MASS_UNIT()
NAMED_UNIT(*)
SI_UNIT($,.GRAM.)
);
#183=DERIVED_UNIT((#180,#181));
#184=MEASURE_REPRESENTATION_ITEM('density measure',
POSITIVE_RATIO_MEASURE(1.),#183);
#185=PROPERTY_DEFINITION_REPRESENTATION(#190,#187);
#186=PROPERTY_DEFINITION_REPRESENTATION(#191,#188);
#187=REPRESENTATION('material name',(#189),#406);
#188=REPRESENTATION('density',(#184),#406);
#189=DESCRIPTIVE_REPRESENTATION_ITEM('PVC','PVC');
#190=PROPERTY_DEFINITION('material property','material name',#416);
#191=PROPERTY_DEFINITION('material property','density of part',#416);
#192=DATE_TIME_ROLE('creation_date');
#193=APPLIED_DATE_AND_TIME_ASSIGNMENT(#194,#192,(#416));
#194=DATE_AND_TIME(#195,#196);
#195=CALENDAR_DATE(2021,19,10);
#196=LOCAL_TIME(0,0,0.,#197);
#197=COORDINATED_UNIVERSAL_TIME_OFFSET(0,0,.BEHIND.);
#198=AXIS2_PLACEMENT_3D('placement',#279,#223,#224);
#199=AXIS2_PLACEMENT_3D('',#280,#225,#226);
#200=AXIS2_PLACEMENT_3D('',#282,#227,#228);
#201=AXIS2_PLACEMENT_3D('',#326,#230,#231);
#202=AXIS2_PLACEMENT_3D('',#328,#232,#233);
#203=AXIS2_PLACEMENT_3D('',#370,#234,#235);
#204=AXIS2_PLACEMENT_3D('',#373,#237,#238);
#205=AXIS2_PLACEMENT_3D('',#374,#239,#240);
#206=AXIS2_PLACEMENT_3D('',#376,#241,#242);
#207=AXIS2_PLACEMENT_3D('',#379,#244,#245);
#208=AXIS2_PLACEMENT_3D('',#380,#246,#247);
#209=AXIS2_PLACEMENT_3D('',#383,#249,#250);
#210=AXIS2_PLACEMENT_3D('',#384,#251,#252);
#211=AXIS2_PLACEMENT_3D('',#385,#253,#254);
#212=AXIS2_PLACEMENT_3D('',#387,#255,#256);
#213=AXIS2_PLACEMENT_3D('',#390,#258,#259);
#214=AXIS2_PLACEMENT_3D('',#391,#260,#261);
#215=AXIS2_PLACEMENT_3D('',#394,#263,#264);
#216=AXIS2_PLACEMENT_3D('',#395,#265,#266);
#217=AXIS2_PLACEMENT_3D('',#396,#267,#268);
#218=AXIS2_PLACEMENT_3D('',#398,#269,#270);
#219=AXIS2_PLACEMENT_3D('',#400,#271,#272);
#220=AXIS2_PLACEMENT_3D('',#401,#273,#274);
#221=AXIS2_PLACEMENT_3D('',#402,#275,#276);
#222=AXIS2_PLACEMENT_3D('',#403,#277,#278);
#223=DIRECTION('axis',(0.,0.,1.));
#224=DIRECTION('refdir',(1.,0.,0.));
#225=DIRECTION('center_axis',(0.258819045102524,0.965925826289068,0.));
#226=DIRECTION('ref_axis',(-0.965925826289068,0.258819045102524,0.));
#227=DIRECTION('center_axis',(-0.258819045102524,-0.965925826289067,0.));
#228=DIRECTION('ref_axis',(-0.965925826289067,0.258819045102524,0.));
#229=DIRECTION('',(-0.866025403784435,-0.500000000000007,8.65956056235484E-17));
#230=DIRECTION('center_axis',(0.,0.,-1.));
#231=DIRECTION('ref_axis',(-1.,0.,0.));
#232=DIRECTION('center_axis',(0.,0.,1.));
#233=DIRECTION('ref_axis',(-1.,0.,0.));
#234=DIRECTION('center_axis',(0.,-1.,0.));
#235=DIRECTION('ref_axis',(-1.,0.,0.));
#236=DIRECTION('',(0.707106781186547,-0.707106781186548,-8.65956056235493E-17));
#237=DIRECTION('center_axis',(0.,1.,0.));
#238=DIRECTION('ref_axis',(-1.,0.,0.));
#239=DIRECTION('center_axis',(-0.258819045102524,-0.965925826289067,0.));
#240=DIRECTION('ref_axis',(0.965925826289067,-0.258819045102524,0.));
#241=DIRECTION('center_axis',(0.258819045102521,0.965925826289068,0.));
#242=DIRECTION('ref_axis',(-0.965925826289068,0.258819045102521,0.));
#243=DIRECTION('',(0.258819045102524,0.965925826289067,0.));
#244=DIRECTION('center_axis',(-0.258819045102524,-0.965925826289067,0.));
#245=DIRECTION('ref_axis',(0.965925826289067,-0.258819045102524,0.));
#246=DIRECTION('center_axis',(-0.258819045102524,-0.965925826289067,0.));
#247=DIRECTION('ref_axis',(-0.965925826289067,0.258819045102524,0.));
#248=DIRECTION('',(0.258819045102524,0.965925826289067,0.));
#249=DIRECTION('center_axis',(0.258819045102524,0.965925826289067,0.));
#250=DIRECTION('ref_axis',(-0.965925826289067,0.258819045102524,0.));
#251=DIRECTION('center_axis',(0.258819045102524,0.965925826289067,0.));
#252=DIRECTION('ref_axis',(0.,0.,1.));
#253=DIRECTION('center_axis',(0.,1.,0.));
#254=DIRECTION('ref_axis',(1.,0.,0.));
#255=DIRECTION('center_axis',(-1.05357210620291E-16,1.,0.));
#256=DIRECTION('ref_axis',(-1.,-1.05357210620291E-16,0.));
#257=DIRECTION('',(0.,-1.,0.));
#258=DIRECTION('center_axis',(0.,-1.,0.));
#259=DIRECTION('ref_axis',(1.,0.,0.));
#260=DIRECTION('center_axis',(0.,1.,0.));
#261=DIRECTION('ref_axis',(-1.,0.,0.));
#262=DIRECTION('',(0.,-1.,0.));
#263=DIRECTION('center_axis',(0.,1.,0.));
#264=DIRECTION('ref_axis',(-1.,0.,0.));
#265=DIRECTION('center_axis',(0.,1.,0.));
#266=DIRECTION('ref_axis',(0.,0.,1.));
#267=DIRECTION('center_axis',(0.,0.,-1.));
#268=DIRECTION('ref_axis',(-1.,0.,0.));
#269=DIRECTION('center_axis',(-0.258819045102521,-0.965925826289068,0.));
#270=DIRECTION('ref_axis',(0.965925826289068,-0.258819045102521,0.));
#271=DIRECTION('center_axis',(0.,0.,1.));
#272=DIRECTION('ref_axis',(-1.,0.,0.));
#273=DIRECTION('center_axis',(1.05357210620291E-16,-1.,0.));
#274=DIRECTION('ref_axis',(1.,1.05357210620291E-16,0.));
#275=DIRECTION('center_axis',(0.258819045102521,0.965925826289068,0.));
#276=DIRECTION('ref_axis',(0.,0.,1.));
#277=DIRECTION('center_axis',(-1.05357210620291E-16,1.,0.));
#278=DIRECTION('ref_axis',(0.,0.,1.));
#279=CARTESIAN_POINT('',(0.,0.,0.));
#280=CARTESIAN_POINT('Origin',(25.5435214419247,352.32971982549,0.));
#281=CARTESIAN_POINT('',(162.181471548192,323.282880794839,-1.70838228481056E-14));
#282=CARTESIAN_POINT('Origin',(27.4348187808668,359.388137586641,0.));
#283=CARTESIAN_POINT('',(144.608058343003,313.136865950243,-1.21042032224201E-14));
#284=CARTESIAN_POINT('',(153.231756448098,318.11576037263,-1.61889230035235E-14));
#285=CARTESIAN_POINT('',(-96.9775931420395,377.593964178256,0.));
#286=CARTESIAN_POINT('Ctrl Pts',(-96.9775931420395,377.593964178256,2.22044604925031E-15));
#287=CARTESIAN_POINT('Ctrl Pts',(-96.9775931420395,377.593964178256,-9.216192323221));
#288=CARTESIAN_POINT('Ctrl Pts',(-95.9927434653281,377.330925364428,-18.4041591274179));
#289=CARTESIAN_POINT('Ctrl Pts',(-92.0898976975863,376.288562468826,-36.3855892543337));
#290=CARTESIAN_POINT('Ctrl Pts',(-89.1844291105157,375.512584451368,-45.1241366246227));
#291=CARTESIAN_POINT('Ctrl Pts',(-78.6476654198221,372.698611048057,-68.1761216804596));
#292=CARTESIAN_POINT('Ctrl Pts',(-69.2015680591684,370.176021056675,-81.3970819897046));
#293=CARTESIAN_POINT('Ctrl Pts',(-45.9389438693545,363.964653198186,-103.347001882873));
#294=CARTESIAN_POINT('Ctrl Pts',(-32.3440635537316,360.335073054997,-111.864432261842));
#295=CARTESIAN_POINT('Ctrl Pts',(-2.76521450796957,352.439657877267,-123.020830313319));
#296=CARTESIAN_POINT('Ctrl Pts',(12.935400377496,348.249476360568,-125.553683472205));
#297=CARTESIAN_POINT('Ctrl Pts',(44.3804371464678,339.8593900992,-124.244730272591));
#298=CARTESIAN_POINT('Ctrl Pts',(59.8244620272877,335.739646714113,-120.41961431874));
#299=CARTESIAN_POINT('Ctrl Pts',(88.4136134606616,328.115188694362,-106.864448042359));
#300=CARTESIAN_POINT('Ctrl Pts',(101.288264381655,324.682595447209,-97.269123320704));
#301=CARTESIAN_POINT('Ctrl Pts',(122.758946701619,318.959206046562,-73.5189772985336));
#302=CARTESIAN_POINT('Ctrl Pts',(131.151857563911,316.722520504289,-59.5924135630159));
#303=CARTESIAN_POINT('Ctrl Pts',(141.942245292487,313.847125160217,-30.2049886474717));
#304=CARTESIAN_POINT('Ctrl Pts',(144.608058343003,313.136865950243,-15.160600420487));
#305=CARTESIAN_POINT('Ctrl Pts',(144.608058343003,313.136865950243,4.44089209850063E-15));
#306=CARTESIAN_POINT('Ctrl Pts',(144.608058343003,313.136865950243,-7.7715611723761E-15));
#307=CARTESIAN_POINT('Ctrl Pts',(144.608058343003,313.136865950243,1.09042774211695));
#308=CARTESIAN_POINT('Ctrl Pts',(144.594268349226,313.14054024972,2.18145667552379));
#309=CARTESIAN_POINT('Ctrl Pts',(144.154450013225,313.257728538406,19.556372312033));
#310=CARTESIAN_POINT('Ctrl Pts',(140.669968148912,314.186110873873,35.6003689116463));
#311=CARTESIAN_POINT('Ctrl Pts',(127.947277694922,317.576538786227,65.4071161474994));
#312=CARTESIAN_POINT('Ctrl Pts',(118.828646865313,320.006754220576,78.8829841258455));
#313=CARTESIAN_POINT('Ctrl Pts',(96.1151174475197,326.061803452582,101.448180045796));
#314=CARTESIAN_POINT('Ctrl Pts',(82.7397444741014,329.628146796793,110.323673913742));
#315=CARTESIAN_POINT('Ctrl Pts',(53.465468992261,337.435848711832,122.261822913379));
#316=CARTESIAN_POINT('Ctrl Pts',(37.8479390916146,341.602167678803,125.214820343153));
#317=CARTESIAN_POINT('Ctrl Pts',(6.40643412048306,349.991835312412,124.760972833073));
#318=CARTESIAN_POINT('Ctrl Pts',(-9.11753396184844,354.135117571891,121.361549092839));
#319=CARTESIAN_POINT('Ctrl Pts',(-38.0325051178089,361.853705927066,108.599998402362));
#320=CARTESIAN_POINT('Ctrl Pts',(-51.147854009004,365.355409913968,99.3604006076057));
#321=CARTESIAN_POINT('Ctrl Pts',(-73.2232438683147,371.249970040252,76.1989861071529));
#322=CARTESIAN_POINT('Ctrl Pts',(-81.971822646292,373.586347137999,62.4977549478736));
#323=CARTESIAN_POINT('Ctrl Pts',(-93.9069283667667,376.773819433604,32.3915196338888));
#324=CARTESIAN_POINT('Ctrl Pts',(-96.9775931420395,377.593964178256,16.2735843002897));
#325=CARTESIAN_POINT('Ctrl Pts',(-96.9775931420395,377.593964178256,0.));
#326=CARTESIAN_POINT('Origin',(805.149935948865,151.,0.));
#327=CARTESIAN_POINT('',(125.151368202732,165.348631797268,2.98585029871741E-14));
#328=CARTESIAN_POINT('Origin',(805.149935948865,151.,1.53080849893419E-14));
#329=CARTESIAN_POINT('',(-124.885176440994,165.614823559006,0.));
#330=CARTESIAN_POINT('Ctrl Pts',(125.151368202732,165.348631797268,4.10782519111308E-14));
#331=CARTESIAN_POINT('Ctrl Pts',(125.151368202732,165.348631797268,-2.16636839183659));
#332=CARTESIAN_POINT('Ctrl Pts',(125.095040232123,165.348710798404,-4.33478886960733));
#333=CARTESIAN_POINT('Ctrl Pts',(124.121125299613,165.350075851546,-23.0260644861264));
#334=CARTESIAN_POINT('Ctrl Pts',(119.987538970314,165.355913482915,-39.2145792218484));
#335=CARTESIAN_POINT('Ctrl Pts',(105.665626598904,165.375381445002,-69.0216165312618));
#336=CARTESIAN_POINT('Ctrl Pts',(95.6264347153073,165.388771448162,-82.3495207837484));
#337=CARTESIAN_POINT('Ctrl Pts',(70.9358588080648,165.419986520703,-104.339151071872));
#338=CARTESIAN_POINT('Ctrl Pts',(56.523824047109,165.437476423763,-112.779598819907));
#339=CARTESIAN_POINT('Ctrl Pts',(25.7300960215028,165.472716193598,-123.397157227953));
#340=CARTESIAN_POINT('Ctrl Pts',(9.70737597296147,165.490113868111,-125.659513456866));
#341=CARTESIAN_POINT('Ctrl Pts',(-22.0431245327122,165.52281847846,-124.023162440231));
#342=CARTESIAN_POINT('Ctrl Pts',(-37.4870911467383,165.537876460851,-120.243911073349));
#343=CARTESIAN_POINT('Ctrl Pts',(-66.1065192559753,165.564645221273,-107.170064879953));
#344=CARTESIAN_POINT('Ctrl Pts',(-79.0349968736345,165.576144331896,-98.0106627484187));
#345=CARTESIAN_POINT('Ctrl Pts',(-100.926504751092,165.595097397672,-75.2760624521993));
#346=CARTESIAN_POINT('Ctrl Pts',(-109.651642518054,165.602351686601,-61.8655747169614));
#347=CARTESIAN_POINT('Ctrl Pts',(-121.744263267495,165.612305746299,-32.2022499201597));
#348=CARTESIAN_POINT('Ctrl Pts',(-124.885176440994,165.614823559006,-16.1775777656769));
#349=CARTESIAN_POINT('Ctrl Pts',(-124.885176440994,165.614823559006,4.44089209850063E-15));
#350=CARTESIAN_POINT('Ctrl Pts',(-124.885176440994,165.614823559007,4.44089209850063E-15));
#351=CARTESIAN_POINT('Ctrl Pts',(-124.885176440994,165.614823559007,10.0194747299605));
#352=CARTESIAN_POINT('Ctrl Pts',(-123.680364705757,165.613852681052,20.0026764980675));
#353=CARTESIAN_POINT('Ctrl Pts',(-118.966674784858,165.610014824196,39.2474825155443));
#354=CARTESIAN_POINT('Ctrl Pts',(-115.5265167998,165.607203745013,48.4536964570179));
#355=CARTESIAN_POINT('Ctrl Pts',(-103.480514424205,165.597199224711,71.8763811594565));
#356=CARTESIAN_POINT('Ctrl Pts',(-93.0675316681201,165.588424934191,84.941500621918));
#357=CARTESIAN_POINT('Ctrl Pts',(-67.7609115772908,165.566094554649,106.257285926318));
#358=CARTESIAN_POINT('Ctrl Pts',(-53.1176455683168,165.552742671905,114.297878361219));
#359=CARTESIAN_POINT('Ctrl Pts',(-21.4441444284358,165.522209260066,124.245790315126));
#360=CARTESIAN_POINT('Ctrl Pts',(-4.71517360043299,165.505287689778,126.01136877839));
#361=CARTESIAN_POINT('Ctrl Pts',(27.9764078506873,165.470244101448,122.929137370826));
#362=CARTESIAN_POINT('Ctrl Pts',(43.6388073111741,165.452493413778,118.297697097258));
#363=CARTESIAN_POINT('Ctrl Pts',(71.8671367254074,165.418885869807,103.564813582938));
#364=CARTESIAN_POINT('Ctrl Pts',(84.2668101479656,165.40329668818,93.7739827982472));
#365=CARTESIAN_POINT('Ctrl Pts',(104.669460995366,165.376788833199,70.278243113763));
#366=CARTESIAN_POINT('Ctrl Pts',(112.55187045666,165.366067805159,56.8285697298127));
#367=CARTESIAN_POINT('Ctrl Pts',(122.663216067723,165.352151265894,28.7043898392966));
#368=CARTESIAN_POINT('Ctrl Pts',(125.151368202732,165.348631797268,14.3975134599802));
#369=CARTESIAN_POINT('Ctrl Pts',(125.151368202732,165.348631797268,3.99680288865056E-14));
#370=CARTESIAN_POINT('Origin',(0.,158.307411779503,0.));
#371=CARTESIAN_POINT('',(139.5,151.,-1.70838228481056E-14));
#372=CARTESIAN_POINT('',(132.192588220497,158.307411779503,-1.61889230035236E-14));
#373=CARTESIAN_POINT('Origin',(0.,151.,0.));
#374=CARTESIAN_POINT('Origin',(66.5164945913479,505.242937356291,0.));
#375=CARTESIAN_POINT('',(-93.3059095052661,391.740518224457,0.));
#376=CARTESIAN_POINT('Origin',(27.4348187808672,359.388137586641,0.));
#377=CARTESIAN_POINT('',(-54.2242336947855,537.595317994106,1.53080849893419E-14));
#378=CARTESIAN_POINT('',(-54.2242336947855,537.595317994106,-1.53080849893419E-14));
#379=CARTESIAN_POINT('Origin',(66.5164945913479,505.242937356291,0.));
#380=CARTESIAN_POINT('Origin',(66.5164945913479,505.242937356291,0.));
#381=CARTESIAN_POINT('',(201.263147358673,469.137680564489,1.70838228481056E-14));
#382=CARTESIAN_POINT('',(201.263147358673,469.137680564489,1.70838228481056E-14));
#383=CARTESIAN_POINT('Origin',(66.5164945913479,505.242937356291,0.));
#384=CARTESIAN_POINT('Origin',(66.516494591348,505.242937356291,0.));
#385=CARTESIAN_POINT('Origin',(0.,0.,0.));
#386=CARTESIAN_POINT('',(-125.,151.,1.53080849893419E-14));
#387=CARTESIAN_POINT('Origin',(-1.39664899375665E-30,151.,0.));
#388=CARTESIAN_POINT('',(-125.,0.,1.53080849893419E-14));
#389=CARTESIAN_POINT('',(-125.,0.,1.53080849893419E-14));
#390=CARTESIAN_POINT('Origin',(0.,0.,0.));
#391=CARTESIAN_POINT('Origin',(0.,0.,0.));
#392=CARTESIAN_POINT('',(139.5,0.,-1.70838228481056E-14));
#393=CARTESIAN_POINT('',(139.5,0.,-1.70838228481056E-14));
#394=CARTESIAN_POINT('Origin',(0.,0.,0.));
#395=CARTESIAN_POINT('Origin',(0.,0.,0.));
#396=CARTESIAN_POINT('Origin',(805.149935948865,151.,0.));
#397=CARTESIAN_POINT('',(134.169622585809,330.788633102813,1.35323471305783E-14));
#398=CARTESIAN_POINT('Origin',(27.4348187808672,359.388137586641,0.));
#399=CARTESIAN_POINT('',(110.5,151.,1.35323471305783E-14));
#400=CARTESIAN_POINT('Origin',(805.149935948865,151.,1.35323471305783E-14));
#401=CARTESIAN_POINT('Origin',(-1.39664899375665E-30,151.,0.));
#402=CARTESIAN_POINT('Origin',(27.4348187808672,359.388137586641,0.));
#403=CARTESIAN_POINT('Origin',(-1.55030019169904E-62,151.,0.));
#404=UNCERTAINTY_MEASURE_WITH_UNIT(LENGTH_MEASURE(0.01),#408,
'DISTANCE_ACCURACY_VALUE',
'Maximum model space distance between geometric entities at asserted c
onnectivities');
#405=UNCERTAINTY_MEASURE_WITH_UNIT(LENGTH_MEASURE(0.01),#408,
'DISTANCE_ACCURACY_VALUE',
'Maximum model space distance between geometric entities at asserted c
onnectivities');
#406=(
GEOMETRIC_REPRESENTATION_CONTEXT(3)
GLOBAL_UNCERTAINTY_ASSIGNED_CONTEXT((#404))
GLOBAL_UNIT_ASSIGNED_CONTEXT((#408,#410,#411))
REPRESENTATION_CONTEXT('','3D')
);
#407=(
GEOMETRIC_REPRESENTATION_CONTEXT(3)
GLOBAL_UNCERTAINTY_ASSIGNED_CONTEXT((#405))
GLOBAL_UNIT_ASSIGNED_CONTEXT((#408,#410,#411))
REPRESENTATION_CONTEXT('','3D')
);
#408=(
LENGTH_UNIT()
NAMED_UNIT(*)
SI_UNIT(.MILLI.,.METRE.)
);
#409=(
LENGTH_UNIT()
NAMED_UNIT(*)
SI_UNIT(.CENTI.,.METRE.)
);
#410=(
NAMED_UNIT(*)
PLANE_ANGLE_UNIT()
SI_UNIT($,.RADIAN.)
);
#411=(
NAMED_UNIT(*)
SI_UNIT($,.STERADIAN.)
SOLID_ANGLE_UNIT()
);
#412=SHAPE_DEFINITION_REPRESENTATION(#413,#414);
#413=PRODUCT_DEFINITION_SHAPE('',$,#416);
#414=SHAPE_REPRESENTATION('',(#198),#406);
#415=PRODUCT_DEFINITION_CONTEXT('part definition',#420,'design');
#416=PRODUCT_DEFINITION('KLIIV250','KLIIV250',#417,#415);
#417=PRODUCT_DEFINITION_FORMATION('0',$,#422);
#418=PRODUCT_RELATED_PRODUCT_CATEGORY('KLIIV250','KLIIV250',(#422));
#419=APPLICATION_PROTOCOL_DEFINITION('international standard',
'automotive_design',2009,#420);
#420=APPLICATION_CONTEXT(
'Core Data for Automotive Mechanical Design Process');
#421=PRODUCT_CONTEXT('part definition',#420,'mechanical');
#422=PRODUCT('KLIIV250','KLIIV250','PVC Bend 15\X\B0, \X\D8250, PN12,5',
(#421));
#423=PRESENTATION_STYLE_ASSIGNMENT((#424));
#424=SURFACE_STYLE_USAGE(.BOTH.,#427);
#425=SURFACE_STYLE_RENDERING_WITH_PROPERTIES($,#431,(#426));
#426=SURFACE_STYLE_TRANSPARENT(0.);
#427=SURFACE_SIDE_STYLE('',(#428,#425));
#428=SURFACE_STYLE_FILL_AREA(#429);
#429=FILL_AREA_STYLE('',(#430));
#430=FILL_AREA_STYLE_COLOUR('',#431);
#431=COLOUR_RGB('',0.250980392156863,0.290196078431373,0.329411764705882);
ENDSEC;
END-ISO-10303-21;
