ISO-10303-21;
HEADER;
/* Generated by software containing ST-Developer
 * from STEP Tools, Inc. (www.steptools.com) 
 */

FILE_DESCRIPTION(
/* description */ ('PVC Bend 15°, Ø90, PN10'),
/* implementation_level */ '2;1');

FILE_NAME(
/* name */ 
'KLIIV090',
/* time_stamp */ '2022-05-11T16:00:46+02:00',
/* author */ ('COAB Solutions'),
/* organization */ ('GPA Flowsystem'),
/* preprocessor_version */ 'ST-DEVELOPER v18.1',
/* originating_system */ 'www.coabsolutions.com',
/* authorisation */ '');

FILE_SCHEMA (('AUTOMOTIVE_DESIGN { 1 0 10303 214 3 1 1 }'));
ENDSEC;

DATA;
#10=MECHANICAL_DESIGN_GEOMETRIC_PRESENTATION_REPRESENTATION('',(#13),#407);
#11=SHAPE_REPRESENTATION_RELATIONSHIP('SRR','None',#414,#12);
#12=ADVANCED_BREP_SHAPE_REPRESENTATION('',(#14),#406);
#13=STYLED_ITEM('',(#423),#14);
#14=MANIFOLD_SOLID_BREP('Solid2',#179);
#15=FACE_BOUND('',#47,.T.);
#16=FACE_BOUND('',#51,.T.);
#17=FACE_BOUND('',#54,.T.);
#18=FACE_BOUND('',#56,.T.);
#19=PLANE('',#210);
#20=PLANE('',#216);
#21=PLANE('',#221);
#22=PLANE('',#222);
#23=CYLINDRICAL_SURFACE('',#205,45.);
#24=CYLINDRICAL_SURFACE('',#208,50.);
#25=CYLINDRICAL_SURFACE('',#211,45.);
#26=CYLINDRICAL_SURFACE('',#214,50.);
#27=TOROIDAL_SURFACE('',#201,281.04290217083,45.);
#28=TOROIDAL_SURFACE('',#217,281.04290217083,40.);
#29=FACE_OUTER_BOUND('',#41,.T.);
#30=FACE_OUTER_BOUND('',#42,.T.);
#31=FACE_OUTER_BOUND('',#43,.T.);
#32=FACE_OUTER_BOUND('',#44,.T.);
#33=FACE_OUTER_BOUND('',#45,.T.);
#34=FACE_OUTER_BOUND('',#46,.T.);
#35=FACE_OUTER_BOUND('',#48,.T.);
#36=FACE_OUTER_BOUND('',#49,.T.);
#37=FACE_OUTER_BOUND('',#50,.T.);
#38=FACE_OUTER_BOUND('',#52,.T.);
#39=FACE_OUTER_BOUND('',#53,.T.);
#40=FACE_OUTER_BOUND('',#55,.T.);
#41=EDGE_LOOP('',(#121,#122,#123,#124,#125));
#42=EDGE_LOOP('',(#126,#127,#128,#129,#130,#131));
#43=EDGE_LOOP('',(#132,#133,#134,#135,#136));
#44=EDGE_LOOP('',(#137,#138,#139,#140));
#45=EDGE_LOOP('',(#141,#142,#143,#144));
#46=EDGE_LOOP('',(#145));
#47=EDGE_LOOP('',(#146));
#48=EDGE_LOOP('',(#147,#148,#149,#150));
#49=EDGE_LOOP('',(#151,#152,#153,#154));
#50=EDGE_LOOP('',(#155));
#51=EDGE_LOOP('',(#156));
#52=EDGE_LOOP('',(#157,#158,#159,#160));
#53=EDGE_LOOP('',(#161));
#54=EDGE_LOOP('',(#162));
#55=EDGE_LOOP('',(#163));
#56=EDGE_LOOP('',(#164));
#57=B_SPLINE_CURVE_WITH_KNOTS('',3,(#286,#287,#288,#289,#290,#291,#292,
#293,#294,#295,#296,#297,#298,#299,#300,#301,#302,#303,#304,#305),
 .UNSPECIFIED.,.F.,.F.,(4,2,2,2,2,2,2,2,2,4),(-28.3610864619254,-27.3657454998423,
-26.3706960161237,-24.6115899378079,-22.851988835457,-21.0925594941096,
-19.3342642231654,-17.5776094223837,-15.8216584947322,-14.1823647401952),
 .UNSPECIFIED.);
#58=B_SPLINE_CURVE_WITH_KNOTS('',3,(#306,#307,#308,#309,#310,#311,#312,
#313,#314,#315,#316,#317,#318,#319,#320,#321,#322,#323,#324,#325),
 .UNSPECIFIED.,.F.,.F.,(4,2,2,2,2,2,2,2,2,4),(-14.1823647401952,-14.0644524228906,
-12.3052094318255,-10.5452302963338,-8.78612560454211,-7.02832608823585,
-5.27135451083949,-3.51458174592554,-1.75755677214829,0.),.UNSPECIFIED.);
#59=B_SPLINE_CURVE_WITH_KNOTS('',3,(#330,#331,#332,#333,#334,#335,#336,
#337,#338,#339,#340,#341,#342,#343,#344,#345,#346,#347,#348,#349),
 .UNSPECIFIED.,.F.,.F.,(4,2,2,2,2,2,2,2,2,4),(-14.1814634357568,-13.936022313545,
-12.1492754373613,-10.3651170923453,-8.57943670277364,-6.85022955425939,
-5.15106745407022,-3.45745478405394,-1.74676953672032,0.),.UNSPECIFIED.);
#60=B_SPLINE_CURVE_WITH_KNOTS('',3,(#350,#351,#352,#353,#354,#355,#356,
#357,#358,#359,#360,#361,#362,#363,#364,#365,#366,#367,#368,#369),
 .UNSPECIFIED.,.F.,.F.,(4,2,2,2,2,2,2,2,2,4),(-28.3602588578554,-27.2706708206794,
-26.2068616422733,-24.4201861069228,-22.6337429451272,-20.832462915816,
-19.0846145376701,-17.3959097297004,-15.7316469221097,-14.1814634357568),
 .UNSPECIFIED.);
#61=LINE('',#284,#67);
#62=LINE('',#372,#68);
#63=LINE('',#378,#69);
#64=LINE('',#382,#70);
#65=LINE('',#389,#71);
#66=LINE('',#393,#72);
#67=VECTOR('',#229,47.48052983532);
#68=VECTOR('',#236,47.48052983532);
#69=VECTOR('',#243,45.);
#70=VECTOR('',#248,50.);
#71=VECTOR('',#257,45.);
#72=VECTOR('',#262,50.);
#73=CIRCLE('',#200,50.);
#74=CIRCLE('',#202,236.042902170829);
#75=CIRCLE('',#204,50.);
#76=CIRCLE('',#206,45.);
#77=CIRCLE('',#207,45.);
#78=CIRCLE('',#209,50.);
#79=CIRCLE('',#212,45.);
#80=CIRCLE('',#213,45.);
#81=CIRCLE('',#215,50.);
#82=CIRCLE('',#218,40.);
#83=CIRCLE('',#219,241.042902170829);
#84=CIRCLE('',#220,40.);
#85=VERTEX_POINT('',#281);
#86=VERTEX_POINT('',#283);
#87=VERTEX_POINT('',#285);
#88=VERTEX_POINT('',#327);
#89=VERTEX_POINT('',#329);
#90=VERTEX_POINT('',#371);
#91=VERTEX_POINT('',#375);
#92=VERTEX_POINT('',#377);
#93=VERTEX_POINT('',#381);
#94=VERTEX_POINT('',#386);
#95=VERTEX_POINT('',#388);
#96=VERTEX_POINT('',#392);
#97=VERTEX_POINT('',#397);
#98=VERTEX_POINT('',#399);
#99=EDGE_CURVE('',#85,#85,#73,.T.);
#100=EDGE_CURVE('',#85,#86,#61,.T.);
#101=EDGE_CURVE('',#87,#86,#57,.T.);
#102=EDGE_CURVE('',#86,#87,#58,.T.);
#103=EDGE_CURVE('',#86,#88,#74,.T.);
#104=EDGE_CURVE('',#88,#89,#59,.T.);
#105=EDGE_CURVE('',#89,#88,#60,.T.);
#106=EDGE_CURVE('',#88,#90,#62,.T.);
#107=EDGE_CURVE('',#90,#90,#75,.T.);
#108=EDGE_CURVE('',#91,#91,#76,.T.);
#109=EDGE_CURVE('',#91,#92,#63,.T.);
#110=EDGE_CURVE('',#92,#92,#77,.T.);
#111=EDGE_CURVE('',#85,#93,#64,.T.);
#112=EDGE_CURVE('',#93,#93,#78,.T.);
#113=EDGE_CURVE('',#94,#94,#79,.T.);
#114=EDGE_CURVE('',#94,#95,#65,.T.);
#115=EDGE_CURVE('',#95,#95,#80,.T.);
#116=EDGE_CURVE('',#90,#96,#66,.T.);
#117=EDGE_CURVE('',#96,#96,#81,.T.);
#118=EDGE_CURVE('',#97,#97,#82,.T.);
#119=EDGE_CURVE('',#97,#98,#83,.T.);
#120=EDGE_CURVE('',#98,#98,#84,.T.);
#121=ORIENTED_EDGE('',*,*,#99,.T.);
#122=ORIENTED_EDGE('',*,*,#100,.T.);
#123=ORIENTED_EDGE('',*,*,#101,.F.);
#124=ORIENTED_EDGE('',*,*,#102,.F.);
#125=ORIENTED_EDGE('',*,*,#100,.F.);
#126=ORIENTED_EDGE('',*,*,#101,.T.);
#127=ORIENTED_EDGE('',*,*,#103,.T.);
#128=ORIENTED_EDGE('',*,*,#104,.T.);
#129=ORIENTED_EDGE('',*,*,#105,.T.);
#130=ORIENTED_EDGE('',*,*,#103,.F.);
#131=ORIENTED_EDGE('',*,*,#102,.T.);
#132=ORIENTED_EDGE('',*,*,#105,.F.);
#133=ORIENTED_EDGE('',*,*,#104,.F.);
#134=ORIENTED_EDGE('',*,*,#106,.T.);
#135=ORIENTED_EDGE('',*,*,#107,.T.);
#136=ORIENTED_EDGE('',*,*,#106,.F.);
#137=ORIENTED_EDGE('',*,*,#108,.F.);
#138=ORIENTED_EDGE('',*,*,#109,.T.);
#139=ORIENTED_EDGE('',*,*,#110,.F.);
#140=ORIENTED_EDGE('',*,*,#109,.F.);
#141=ORIENTED_EDGE('',*,*,#99,.F.);
#142=ORIENTED_EDGE('',*,*,#111,.T.);
#143=ORIENTED_EDGE('',*,*,#112,.F.);
#144=ORIENTED_EDGE('',*,*,#111,.F.);
#145=ORIENTED_EDGE('',*,*,#112,.T.);
#146=ORIENTED_EDGE('',*,*,#110,.T.);
#147=ORIENTED_EDGE('',*,*,#113,.T.);
#148=ORIENTED_EDGE('',*,*,#114,.T.);
#149=ORIENTED_EDGE('',*,*,#115,.T.);
#150=ORIENTED_EDGE('',*,*,#114,.F.);
#151=ORIENTED_EDGE('',*,*,#107,.F.);
#152=ORIENTED_EDGE('',*,*,#116,.T.);
#153=ORIENTED_EDGE('',*,*,#117,.T.);
#154=ORIENTED_EDGE('',*,*,#116,.F.);
#155=ORIENTED_EDGE('',*,*,#117,.F.);
#156=ORIENTED_EDGE('',*,*,#115,.F.);
#157=ORIENTED_EDGE('',*,*,#118,.F.);
#158=ORIENTED_EDGE('',*,*,#119,.T.);
#159=ORIENTED_EDGE('',*,*,#120,.T.);
#160=ORIENTED_EDGE('',*,*,#119,.F.);
#161=ORIENTED_EDGE('',*,*,#108,.T.);
#162=ORIENTED_EDGE('',*,*,#118,.T.);
#163=ORIENTED_EDGE('',*,*,#113,.F.);
#164=ORIENTED_EDGE('',*,*,#120,.F.);
#165=CONICAL_SURFACE('',#199,47.48052983532,0.785398163397443);
#166=CONICAL_SURFACE('',#203,47.48052983532,0.785398163397447);
#167=ADVANCED_FACE('',(#29),#165,.T.);
#168=ADVANCED_FACE('',(#30),#27,.T.);
#169=ADVANCED_FACE('',(#31),#166,.T.);
#170=ADVANCED_FACE('',(#32),#23,.F.);
#171=ADVANCED_FACE('',(#33),#24,.T.);
#172=ADVANCED_FACE('',(#34,#15),#19,.T.);
#173=ADVANCED_FACE('',(#35),#25,.F.);
#174=ADVANCED_FACE('',(#36),#26,.T.);
#175=ADVANCED_FACE('',(#37,#16),#20,.F.);
#176=ADVANCED_FACE('',(#38),#28,.F.);
#177=ADVANCED_FACE('',(#39,#17),#21,.T.);
#178=ADVANCED_FACE('',(#40,#18),#22,.F.);
#179=CLOSED_SHELL('',(#167,#168,#169,#170,#171,#172,#173,#174,#175,#176,
#177,#178));
#180=DERIVED_UNIT_ELEMENT(#182,1.);
#181=DERIVED_UNIT_ELEMENT(#409,-3.);
#182=(
MASS_UNIT()
NAMED_UNIT(*)
SI_UNIT($,.GRAM.)
);
#183=DERIVED_UNIT((#180,#181));
#184=MEASURE_REPRESENTATION_ITEM('density measure',
POSITIVE_RATIO_MEASURE(1.),#183);
#185=PROPERTY_DEFINITION_REPRESENTATION(#190,#187);
#186=PROPERTY_DEFINITION_REPRESENTATION(#191,#188);
#187=REPRESENTATION('material name',(#189),#406);
#188=REPRESENTATION('density',(#184),#406);
#189=DESCRIPTIVE_REPRESENTATION_ITEM('PVC','PVC');
#190=PROPERTY_DEFINITION('material property','material name',#416);
#191=PROPERTY_DEFINITION('material property','density of part',#416);
#192=DATE_TIME_ROLE('creation_date');
#193=APPLIED_DATE_AND_TIME_ASSIGNMENT(#194,#192,(#416));
#194=DATE_AND_TIME(#195,#196);
#195=CALENDAR_DATE(2021,19,10);
#196=LOCAL_TIME(0,0,0.,#197);
#197=COORDINATED_UNIVERSAL_TIME_OFFSET(0,0,.BEHIND.);
#198=AXIS2_PLACEMENT_3D('placement',#279,#223,#224);
#199=AXIS2_PLACEMENT_3D('',#280,#225,#226);
#200=AXIS2_PLACEMENT_3D('',#282,#227,#228);
#201=AXIS2_PLACEMENT_3D('',#326,#230,#231);
#202=AXIS2_PLACEMENT_3D('',#328,#232,#233);
#203=AXIS2_PLACEMENT_3D('',#370,#234,#235);
#204=AXIS2_PLACEMENT_3D('',#373,#237,#238);
#205=AXIS2_PLACEMENT_3D('',#374,#239,#240);
#206=AXIS2_PLACEMENT_3D('',#376,#241,#242);
#207=AXIS2_PLACEMENT_3D('',#379,#244,#245);
#208=AXIS2_PLACEMENT_3D('',#380,#246,#247);
#209=AXIS2_PLACEMENT_3D('',#383,#249,#250);
#210=AXIS2_PLACEMENT_3D('',#384,#251,#252);
#211=AXIS2_PLACEMENT_3D('',#385,#253,#254);
#212=AXIS2_PLACEMENT_3D('',#387,#255,#256);
#213=AXIS2_PLACEMENT_3D('',#390,#258,#259);
#214=AXIS2_PLACEMENT_3D('',#391,#260,#261);
#215=AXIS2_PLACEMENT_3D('',#394,#263,#264);
#216=AXIS2_PLACEMENT_3D('',#395,#265,#266);
#217=AXIS2_PLACEMENT_3D('',#396,#267,#268);
#218=AXIS2_PLACEMENT_3D('',#398,#269,#270);
#219=AXIS2_PLACEMENT_3D('',#400,#271,#272);
#220=AXIS2_PLACEMENT_3D('',#401,#273,#274);
#221=AXIS2_PLACEMENT_3D('',#402,#275,#276);
#222=AXIS2_PLACEMENT_3D('',#403,#277,#278);
#223=DIRECTION('axis',(0.,0.,1.));
#224=DIRECTION('refdir',(1.,0.,0.));
#225=DIRECTION('center_axis',(0.25881904510252,0.965925826289068,0.));
#226=DIRECTION('ref_axis',(-0.965925826289068,0.25881904510252,0.));
#227=DIRECTION('center_axis',(-0.258819045102521,-0.965925826289068,0.));
#228=DIRECTION('ref_axis',(-0.965925826289068,0.258819045102521,0.));
#229=DIRECTION('',(-0.866025403784436,-0.500000000000005,8.65956056235488E-17));
#230=DIRECTION('center_axis',(0.,0.,-1.));
#231=DIRECTION('ref_axis',(-1.,0.,0.));
#232=DIRECTION('center_axis',(0.,0.,1.));
#233=DIRECTION('ref_axis',(-1.,0.,0.));
#234=DIRECTION('center_axis',(0.,-1.,0.));
#235=DIRECTION('ref_axis',(-1.,0.,0.));
#236=DIRECTION('',(0.707106781186547,-0.707106781186548,-8.65956056235492E-17));
#237=DIRECTION('center_axis',(0.,1.,0.));
#238=DIRECTION('ref_axis',(-1.,0.,0.));
#239=DIRECTION('center_axis',(-0.258819045102521,-0.965925826289068,0.));
#240=DIRECTION('ref_axis',(0.965925826289068,-0.258819045102521,0.));
#241=DIRECTION('center_axis',(0.25881904510252,0.965925826289069,0.));
#242=DIRECTION('ref_axis',(-0.965925826289069,0.25881904510252,0.));
#243=DIRECTION('',(0.258819045102521,0.965925826289068,0.));
#244=DIRECTION('center_axis',(-0.258819045102521,-0.965925826289068,0.));
#245=DIRECTION('ref_axis',(0.965925826289068,-0.258819045102521,0.));
#246=DIRECTION('center_axis',(-0.258819045102521,-0.965925826289068,0.));
#247=DIRECTION('ref_axis',(-0.965925826289068,0.258819045102521,0.));
#248=DIRECTION('',(0.258819045102521,0.965925826289068,0.));
#249=DIRECTION('center_axis',(0.258819045102521,0.965925826289068,0.));
#250=DIRECTION('ref_axis',(-0.965925826289068,0.258819045102521,0.));
#251=DIRECTION('center_axis',(0.258819045102521,0.965925826289068,0.));
#252=DIRECTION('ref_axis',(0.,0.,1.));
#253=DIRECTION('center_axis',(0.,1.,0.));
#254=DIRECTION('ref_axis',(1.,0.,0.));
#255=DIRECTION('center_axis',(-5.66879506473036E-16,1.,0.));
#256=DIRECTION('ref_axis',(-1.,-5.66879506473036E-16,0.));
#257=DIRECTION('',(0.,-1.,0.));
#258=DIRECTION('center_axis',(0.,-1.,0.));
#259=DIRECTION('ref_axis',(1.,0.,0.));
#260=DIRECTION('center_axis',(0.,1.,0.));
#261=DIRECTION('ref_axis',(-1.,0.,0.));
#262=DIRECTION('',(0.,-1.,0.));
#263=DIRECTION('center_axis',(0.,1.,0.));
#264=DIRECTION('ref_axis',(-1.,0.,0.));
#265=DIRECTION('center_axis',(0.,1.,0.));
#266=DIRECTION('ref_axis',(0.,0.,1.));
#267=DIRECTION('center_axis',(0.,0.,-1.));
#268=DIRECTION('ref_axis',(-1.,0.,0.));
#269=DIRECTION('center_axis',(-0.25881904510252,-0.965925826289069,0.));
#270=DIRECTION('ref_axis',(0.965925826289068,-0.25881904510252,0.));
#271=DIRECTION('center_axis',(0.,0.,1.));
#272=DIRECTION('ref_axis',(-1.,0.,0.));
#273=DIRECTION('center_axis',(5.66879506473036E-16,-1.,0.));
#274=DIRECTION('ref_axis',(1.,5.66879506473036E-16,0.));
#275=DIRECTION('center_axis',(0.25881904510252,0.965925826289069,0.));
#276=DIRECTION('ref_axis',(0.,0.,1.));
#277=DIRECTION('center_axis',(-5.66879506473036E-16,1.,0.));
#278=DIRECTION('ref_axis',(0.,0.,1.));
#279=CARTESIAN_POINT('',(0.,0.,0.));
#280=CARTESIAN_POINT('Origin',(8.92421780660645,129.305634272066,0.));
#281=CARTESIAN_POINT('',(57.8725959832467,118.798303317569,-6.12323399573677E-15));
#282=CARTESIAN_POINT('Origin',(9.57630466879323,131.739255572695,0.));
#283=CARTESIAN_POINT('',(51.8123981015292,115.299446439217,-8.86485800293574E-15));
#284=CARTESIAN_POINT('',(54.7868878204307,117.016768879127,-5.8146878884645E-15));
#285=CARTESIAN_POINT('',(-35.1569177687753,138.508791502189,0.));
#286=CARTESIAN_POINT('Ctrl Pts',(-35.1569177687753,138.508791502189,5.55111512312578E-16));
#287=CARTESIAN_POINT('Ctrl Pts',(-35.1569177687753,138.508791502189,-3.31780320694367));
#288=CARTESIAN_POINT('Ctrl Pts',(-34.8023832918963,138.414081495345,-6.62544571714512));
#289=CARTESIAN_POINT('Ctrl Pts',(-33.3973977701708,138.038765310433,-13.0987400475091));
#290=CARTESIAN_POINT('Ctrl Pts',(-32.351450638142,137.75936235492,-16.2446214402059));
#291=CARTESIAN_POINT('Ctrl Pts',(-28.5583239265616,136.746154018129,-24.5432704979332));
#292=CARTESIAN_POINT('Ctrl Pts',(-25.1578526933973,135.837868046365,-29.3027659785641));
#293=CARTESIAN_POINT('Ctrl Pts',(-16.7835980827094,133.601383961927,-37.2047052336994));
#294=CARTESIAN_POINT('Ctrl Pts',(-11.8895983527332,132.294498866444,-40.2709951317989));
#295=CARTESIAN_POINT('Ctrl Pts',(-1.24145986351044,129.451596506975,-44.2874055482338));
#296=CARTESIAN_POINT('Ctrl Pts',(4.41068294048053,127.942817279012,-45.1992929176711));
#297=CARTESIAN_POINT('Ctrl Pts',(15.7308279770626,124.921720981414,-44.7281637312809));
#298=CARTESIAN_POINT('Ctrl Pts',(21.2906820064635,123.438270051963,-43.3511265182692));
#299=CARTESIAN_POINT('Ctrl Pts',(31.5827495373785,120.692831819977,-38.4712154037242));
#300=CARTESIAN_POINT('Ctrl Pts',(36.2175933397494,119.456814101036,-35.016855157343));
#301=CARTESIAN_POINT('Ctrl Pts',(43.9469120815598,117.39593825934,-26.4667463437624));
#302=CARTESIAN_POINT('Ctrl Pts',(46.9682871593666,116.590558390232,-21.4531920604276));
#303=CARTESIAN_POINT('Ctrl Pts',(50.8527299522728,115.555194419051,-10.8737517315235));
#304=CARTESIAN_POINT('Ctrl Pts',(51.8123981015292,115.299446439217,-5.45779356471003));
#305=CARTESIAN_POINT('Ctrl Pts',(51.8123981015292,115.299446439217,-1.11022302462516E-14));
#306=CARTESIAN_POINT('Ctrl Pts',(51.8123981015292,115.299446439217,-1.29063426612674E-14));
#307=CARTESIAN_POINT('Ctrl Pts',(51.8123981015292,115.299446439217,0.392572157860157));
#308=CARTESIAN_POINT('Ctrl Pts',(51.8074333301342,115.300769603066,0.785360761281831));
#309=CARTESIAN_POINT('Ctrl Pts',(51.6490924982102,115.34296914075,7.04039506166531));
#310=CARTESIAN_POINT('Ctrl Pts',(50.3946751669123,115.677267823292,12.8162776561376));
#311=CARTESIAN_POINT('Ctrl Pts',(45.8145307539114,116.898107097386,23.5467116399701));
#312=CARTESIAN_POINT('Ctrl Pts',(42.5318746632964,117.773180058232,28.3979968347408));
#313=CARTESIAN_POINT('Ctrl Pts',(34.3552162756563,119.953458207419,36.5213494956498));
#314=CARTESIAN_POINT('Ctrl Pts',(29.5402646744011,121.237595984882,39.7164685684151));
#315=CARTESIAN_POINT('Ctrl Pts',(19.0019223376127,124.048916379001,44.0141713100979));
#316=CARTESIAN_POINT('Ctrl Pts',(13.3798179835679,125.549080308293,45.0772768136054));
#317=CARTESIAN_POINT('Ctrl Pts',(2.06117866971512,128.56995981016,44.9140211549231));
#318=CARTESIAN_POINT('Ctrl Pts',(-3.52735571087713,130.061845460792,43.6902953642416));
#319=CARTESIAN_POINT('Ctrl Pts',(-13.9366670018793,132.84111807115,39.096239142645));
#320=CARTESIAN_POINT('Ctrl Pts',(-18.6581948765952,134.101999067644,35.7699914800863));
#321=CARTESIAN_POINT('Ctrl Pts',(-26.6053553474194,136.224489295967,27.4318413241814));
#322=CARTESIAN_POINT('Ctrl Pts',(-29.7548548846281,137.065760245309,22.4993470789383));
#323=CARTESIAN_POINT('Ctrl Pts',(-34.0514844433996,138.213481670851,11.6610119606883));
#324=CARTESIAN_POINT('Ctrl Pts',(-35.1569177687753,138.508791502189,5.85852257382763));
#325=CARTESIAN_POINT('Ctrl Pts',(-35.1569177687753,138.508791502189,-3.33066907387547E-15));
#326=CARTESIAN_POINT('Origin',(281.04290217083,59.,0.));
#327=CARTESIAN_POINT('',(45.0518691498323,63.9481308501678,6.08612437195701E-15));
#328=CARTESIAN_POINT('Origin',(281.04290217083,59.,5.51091059616309E-15));
#329=CARTESIAN_POINT('',(-44.9610596706399,64.0389403293601,0.));
#330=CARTESIAN_POINT('Ctrl Pts',(45.0518691498323,63.9481308501678,5.27355936696949E-15));
#331=CARTESIAN_POINT('Ctrl Pts',(45.0518691498323,63.9481308501678,-0.816224893655533));
#332=CARTESIAN_POINT('Ctrl Pts',(45.0296577644649,63.9481606807243,-1.63324679735458));
#333=CARTESIAN_POINT('Ctrl Pts',(44.6607575885067,63.9486557588061,-8.39715022463231));
#334=CARTESIAN_POINT('Ctrl Pts',(43.1587605673116,63.9506870479592,-14.2208940299312));
#335=CARTESIAN_POINT('Ctrl Pts',(37.9780512688688,63.9574190321112,-24.9373386881524));
#336=CARTESIAN_POINT('Ctrl Pts',(34.3535633597253,63.9620356492163,-29.7257496762484));
#337=CARTESIAN_POINT('Ctrl Pts',(25.4491866845267,63.9727622526383,-37.6194189839073));
#338=CARTESIAN_POINT('Ctrl Pts',(20.2556880589622,63.9787566928319,-40.6454085296313));
#339=CARTESIAN_POINT('Ctrl Pts',(9.17096631423253,63.9907945932823,-44.4403666867331));
#340=CARTESIAN_POINT('Ctrl Pts',(3.40940795012736,63.9967190564376,-45.2426293529263));
#341=CARTESIAN_POINT('Ctrl Pts',(-8.0024140501325,64.0078309946537,-44.6355956886225));
#342=CARTESIAN_POINT('Ctrl Pts',(-13.5510730133804,64.012935072145,-43.2698987285693));
#343=CARTESIAN_POINT('Ctrl Pts',(-23.8329886317491,64.0219963987547,-38.5600825285541));
#344=CARTESIAN_POINT('Ctrl Pts',(-28.4776661201242,64.0258822753638,-35.2642056337472));
#345=CARTESIAN_POINT('Ctrl Pts',(-36.3447974078533,64.0322837312472,-27.0862952692926));
#346=CARTESIAN_POINT('Ctrl Pts',(-39.4812085152592,64.0347313389714,-22.2626513787742));
#347=CARTESIAN_POINT('Ctrl Pts',(-43.8308634709593,64.0380909564557,-11.5901242652132));
#348=CARTESIAN_POINT('Ctrl Pts',(-44.9610596706399,64.0389403293601,-5.82256512240105));
#349=CARTESIAN_POINT('Ctrl Pts',(-44.9610596706399,64.0389403293601,0.));
#350=CARTESIAN_POINT('Ctrl Pts',(-44.9610596706399,64.0389403293601,1.11022302462516E-15));
#351=CARTESIAN_POINT('Ctrl Pts',(-44.9610596706399,64.0389403293601,3.63196012392009));
#352=CARTESIAN_POINT('Ctrl Pts',(-44.5213078887202,64.0386080634613,7.2505892964719));
#353=CARTESIAN_POINT('Ctrl Pts',(-42.8021087490744,64.0372949614785,14.2196577297546));
#354=CARTESIAN_POINT('Ctrl Pts',(-41.5487890323905,64.0363340702802,17.5500348471776));
#355=CARTESIAN_POINT('Ctrl Pts',(-37.1779568356043,64.0329256340278,25.9866564730577));
#356=CARTESIAN_POINT('Ctrl Pts',(-33.4155775632367,64.0299471224361,30.6785588475346));
#357=CARTESIAN_POINT('Ctrl Pts',(-24.2833388481001,64.0223635654511,38.3244980278598));
#358=CARTESIAN_POINT('Ctrl Pts',(-19.0038673055227,64.0178277666049,41.2032630104327));
#359=CARTESIAN_POINT('Ctrl Pts',(-7.58383442777033,64.0074332774888,44.75341336006));
#360=CARTESIAN_POINT('Ctrl Pts',(-1.55104824392994,64.0016610487292,45.3706544285366));
#361=CARTESIAN_POINT('Ctrl Pts',(10.2232882754568,63.9896945494429,44.2194122179963));
#362=CARTESIAN_POINT('Ctrl Pts',(15.8570265637921,63.9836281227255,42.53202098699));
#363=CARTESIAN_POINT('Ctrl Pts',(25.9934762042319,63.9721399018936,37.1958787506928));
#364=CARTESIAN_POINT('Ctrl Pts',(30.4386915578274,63.9668090776456,33.6624455920323));
#365=CARTESIAN_POINT('Ctrl Pts',(37.7417961192095,63.9577472901568,25.2019178512245));
#366=CARTESIAN_POINT('Ctrl Pts',(40.5591692184042,63.9540816718485,20.3682049994551));
#367=CARTESIAN_POINT('Ctrl Pts',(44.1657525687814,63.9493313881707,10.2786089847205));
#368=CARTESIAN_POINT('Ctrl Pts',(45.0518691498323,63.9481308501677,5.15520113293406));
#369=CARTESIAN_POINT('Ctrl Pts',(45.0518691498323,63.9481308501677,3.33066907387547E-15));
#370=CARTESIAN_POINT('Origin',(0.,61.5194701646801,0.));
#371=CARTESIAN_POINT('',(50.,59.,-6.12323399573677E-15));
#372=CARTESIAN_POINT('',(47.48052983532,61.5194701646801,-5.8146878884645E-15));
#373=CARTESIAN_POINT('Origin',(0.,59.,0.));
#374=CARTESIAN_POINT('Origin',(24.846628329842,188.72887932375,0.));
#375=CARTESIAN_POINT('',(-33.8903575142148,143.386112602309,0.));
#376=CARTESIAN_POINT('Origin',(9.57630466879318,131.739255572695,0.));
#377=CARTESIAN_POINT('',(-18.6200338531661,200.375736353364,5.51091059616309E-15));
#378=CARTESIAN_POINT('',(-18.6200338531661,200.375736353364,-5.51091059616309E-15));
#379=CARTESIAN_POINT('Origin',(24.846628329842,188.72887932375,0.));
#380=CARTESIAN_POINT('Origin',(24.846628329842,188.72887932375,0.));
#381=CARTESIAN_POINT('',(73.1429196442954,175.787927068624,6.12323399573677E-15));
#382=CARTESIAN_POINT('',(73.1429196442954,175.787927068624,6.12323399573677E-15));
#383=CARTESIAN_POINT('Origin',(24.846628329842,188.72887932375,0.));
#384=CARTESIAN_POINT('Origin',(24.846628329842,188.72887932375,0.));
#385=CARTESIAN_POINT('Origin',(0.,0.,0.));
#386=CARTESIAN_POINT('',(-45.,59.,5.51091059616309E-15));
#387=CARTESIAN_POINT('Origin',(-1.39664899375665E-30,59.,0.));
#388=CARTESIAN_POINT('',(-45.,0.,5.51091059616309E-15));
#389=CARTESIAN_POINT('',(-45.,0.,5.51091059616309E-15));
#390=CARTESIAN_POINT('Origin',(0.,0.,0.));
#391=CARTESIAN_POINT('Origin',(0.,0.,0.));
#392=CARTESIAN_POINT('',(50.,0.,-6.12323399573677E-15));
#393=CARTESIAN_POINT('',(50.,0.,-6.12323399573677E-15));
#394=CARTESIAN_POINT('Origin',(0.,0.,0.));
#395=CARTESIAN_POINT('Origin',(0.,0.,0.));
#396=CARTESIAN_POINT('Origin',(281.04290217083,59.,0.));
#397=CARTESIAN_POINT('',(48.2133377203559,121.386493768594,4.89858719658941E-15));
#398=CARTESIAN_POINT('Origin',(9.57630466879318,131.739255572695,0.));
#399=CARTESIAN_POINT('',(40.,59.,4.89858719658941E-15));
#400=CARTESIAN_POINT('Origin',(281.04290217083,59.,4.89858719658941E-15));
#401=CARTESIAN_POINT('Origin',(-1.39664899375665E-30,59.,0.));
#402=CARTESIAN_POINT('Origin',(9.57630466879318,131.739255572695,0.));
#403=CARTESIAN_POINT('Origin',(-4.48816470988288E-61,59.,0.));
#404=UNCERTAINTY_MEASURE_WITH_UNIT(LENGTH_MEASURE(0.01),#408,
'DISTANCE_ACCURACY_VALUE',
'Maximum model space distance between geometric entities at asserted c
onnectivities');
#405=UNCERTAINTY_MEASURE_WITH_UNIT(LENGTH_MEASURE(0.01),#408,
'DISTANCE_ACCURACY_VALUE',
'Maximum model space distance between geometric entities at asserted c
onnectivities');
#406=(
GEOMETRIC_REPRESENTATION_CONTEXT(3)
GLOBAL_UNCERTAINTY_ASSIGNED_CONTEXT((#404))
GLOBAL_UNIT_ASSIGNED_CONTEXT((#408,#410,#411))
REPRESENTATION_CONTEXT('','3D')
);
#407=(
GEOMETRIC_REPRESENTATION_CONTEXT(3)
GLOBAL_UNCERTAINTY_ASSIGNED_CONTEXT((#405))
GLOBAL_UNIT_ASSIGNED_CONTEXT((#408,#410,#411))
REPRESENTATION_CONTEXT('','3D')
);
#408=(
LENGTH_UNIT()
NAMED_UNIT(*)
SI_UNIT(.MILLI.,.METRE.)
);
#409=(
LENGTH_UNIT()
NAMED_UNIT(*)
SI_UNIT(.CENTI.,.METRE.)
);
#410=(
NAMED_UNIT(*)
PLANE_ANGLE_UNIT()
SI_UNIT($,.RADIAN.)
);
#411=(
NAMED_UNIT(*)
SI_UNIT($,.STERADIAN.)
SOLID_ANGLE_UNIT()
);
#412=SHAPE_DEFINITION_REPRESENTATION(#413,#414);
#413=PRODUCT_DEFINITION_SHAPE('',$,#416);
#414=SHAPE_REPRESENTATION('',(#198),#406);
#415=PRODUCT_DEFINITION_CONTEXT('part definition',#420,'design');
#416=PRODUCT_DEFINITION('KLIIV090','KLIIV090',#417,#415);
#417=PRODUCT_DEFINITION_FORMATION('0',$,#422);
#418=PRODUCT_RELATED_PRODUCT_CATEGORY('KLIIV090','KLIIV090',(#422));
#419=APPLICATION_PROTOCOL_DEFINITION('international standard',
'automotive_design',2009,#420);
#420=APPLICATION_CONTEXT(
'Core Data for Automotive Mechanical Design Process');
#421=PRODUCT_CONTEXT('part definition',#420,'mechanical');
#422=PRODUCT('KLIIV090','KLIIV090','PVC Bend 15\X\B0, \X\D890, PN10',(#421));
#423=PRESENTATION_STYLE_ASSIGNMENT((#424));
#424=SURFACE_STYLE_USAGE(.BOTH.,#427);
#425=SURFACE_STYLE_RENDERING_WITH_PROPERTIES($,#431,(#426));
#426=SURFACE_STYLE_TRANSPARENT(0.);
#427=SURFACE_SIDE_STYLE('',(#428,#425));
#428=SURFACE_STYLE_FILL_AREA(#429);
#429=FILL_AREA_STYLE('',(#430));
#430=FILL_AREA_STYLE_COLOUR('',#431);
#431=COLOUR_RGB('',0.250980392156863,0.290196078431373,0.329411764705882);
ENDSEC;
END-ISO-10303-21;
