ISO-10303-21;
HEADER;
/* Generated by software containing ST-Developer
 * from STEP Tools, Inc. (www.steptools.com) 
 */

FILE_DESCRIPTION(
/* description */ (
'PE100 Stub Flange with long spigot for Butterfly Valves, Ø140, SDR17 PN10'),
/* implementation_level */ '2;1');

FILE_NAME(
/* name */ 
'QELFK17-RC-140',
/* author */ ('COAB Solutions'),
/* organization */ ('GPA Flowsystem'),
/* preprocessor_version */ 'ST-DEVELOPER v18.1',
/* originating_system */ 'www.coabsolutions.com',
/* authorisation */ '');

FILE_SCHEMA (('AUTOMOTIVE_DESIGN { 1 0 10303 214 3 1 1 }'));
ENDSEC;

DATA;
#10=MECHANICAL_DESIGN_GEOMETRIC_PRESENTATION_REPRESENTATION('',(#13),#226);
#11=SHAPE_REPRESENTATION_RELATIONSHIP('SRR','None',#233,#12);
#12=ADVANCED_BREP_SHAPE_REPRESENTATION('',(#14),#225);
#13=STYLED_ITEM('',(#242),#14);
#14=MANIFOLD_SOLID_BREP('Solid2',#118);
#15=FACE_BOUND('',#35,.T.);
#16=FACE_BOUND('',#39,.T.);
#17=FACE_BOUND('',#42,.T.);
#18=PLANE('',#143);
#19=PLANE('',#149);
#20=PLANE('',#153);
#21=CYLINDRICAL_SURFACE('',#141,61.7);
#22=CYLINDRICAL_SURFACE('',#145,70.);
#23=CYLINDRICAL_SURFACE('',#151,94.);
#24=FACE_OUTER_BOUND('',#32,.T.);
#25=FACE_OUTER_BOUND('',#33,.T.);
#26=FACE_OUTER_BOUND('',#34,.T.);
#27=FACE_OUTER_BOUND('',#36,.T.);
#28=FACE_OUTER_BOUND('',#37,.T.);
#29=FACE_OUTER_BOUND('',#38,.T.);
#30=FACE_OUTER_BOUND('',#40,.T.);
#31=FACE_OUTER_BOUND('',#41,.T.);
#32=EDGE_LOOP('',(#82,#83,#84,#85));
#33=EDGE_LOOP('',(#86,#87,#88,#89));
#34=EDGE_LOOP('',(#90));
#35=EDGE_LOOP('',(#91));
#36=EDGE_LOOP('',(#92,#93,#94,#95));
#37=EDGE_LOOP('',(#96,#97,#98,#99));
#38=EDGE_LOOP('',(#100));
#39=EDGE_LOOP('',(#101));
#40=EDGE_LOOP('',(#102,#103,#104,#105));
#41=EDGE_LOOP('',(#106));
#42=EDGE_LOOP('',(#107));
#43=LINE('',#198,#48);
#44=LINE('',#202,#49);
#45=LINE('',#210,#50);
#46=LINE('',#214,#51);
#47=LINE('',#221,#52);
#48=VECTOR('',#160,62.1);
#49=VECTOR('',#165,61.7);
#50=VECTOR('',#176,70.);
#51=VECTOR('',#181,73.75);
#52=VECTOR('',#190,94.);
#53=CIRCLE('',#139,62.5);
#54=CIRCLE('',#140,61.7);
#55=CIRCLE('',#142,61.7);
#56=CIRCLE('',#144,70.);
#57=CIRCLE('',#146,70.);
#58=CIRCLE('',#148,77.5);
#59=CIRCLE('',#150,94.);
#60=CIRCLE('',#152,94.);
#61=VERTEX_POINT('',#195);
#62=VERTEX_POINT('',#197);
#63=VERTEX_POINT('',#201);
#64=VERTEX_POINT('',#205);
#65=VERTEX_POINT('',#208);
#66=VERTEX_POINT('',#212);
#67=VERTEX_POINT('',#216);
#68=VERTEX_POINT('',#219);
#69=EDGE_CURVE('',#61,#61,#53,.T.);
#70=EDGE_CURVE('',#61,#62,#43,.T.);
#71=EDGE_CURVE('',#62,#62,#54,.T.);
#72=EDGE_CURVE('',#62,#63,#44,.T.);
#73=EDGE_CURVE('',#63,#63,#55,.T.);
#74=EDGE_CURVE('',#64,#64,#56,.T.);
#75=EDGE_CURVE('',#65,#65,#57,.T.);
#76=EDGE_CURVE('',#65,#64,#45,.T.);
#77=EDGE_CURVE('',#66,#66,#58,.T.);
#78=EDGE_CURVE('',#66,#65,#46,.T.);
#79=EDGE_CURVE('',#67,#67,#59,.T.);
#80=EDGE_CURVE('',#68,#68,#60,.T.);
#81=EDGE_CURVE('',#68,#67,#47,.T.);
#82=ORIENTED_EDGE('',*,*,#69,.T.);
#83=ORIENTED_EDGE('',*,*,#70,.T.);
#84=ORIENTED_EDGE('',*,*,#71,.F.);
#85=ORIENTED_EDGE('',*,*,#70,.F.);
#86=ORIENTED_EDGE('',*,*,#71,.T.);
#87=ORIENTED_EDGE('',*,*,#72,.T.);
#88=ORIENTED_EDGE('',*,*,#73,.F.);
#89=ORIENTED_EDGE('',*,*,#72,.F.);
#90=ORIENTED_EDGE('',*,*,#74,.F.);
#91=ORIENTED_EDGE('',*,*,#73,.T.);
#92=ORIENTED_EDGE('',*,*,#75,.F.);
#93=ORIENTED_EDGE('',*,*,#76,.T.);
#94=ORIENTED_EDGE('',*,*,#74,.T.);
#95=ORIENTED_EDGE('',*,*,#76,.F.);
#96=ORIENTED_EDGE('',*,*,#77,.F.);
#97=ORIENTED_EDGE('',*,*,#78,.T.);
#98=ORIENTED_EDGE('',*,*,#75,.T.);
#99=ORIENTED_EDGE('',*,*,#78,.F.);
#100=ORIENTED_EDGE('',*,*,#79,.F.);
#101=ORIENTED_EDGE('',*,*,#77,.T.);
#102=ORIENTED_EDGE('',*,*,#80,.F.);
#103=ORIENTED_EDGE('',*,*,#81,.T.);
#104=ORIENTED_EDGE('',*,*,#79,.T.);
#105=ORIENTED_EDGE('',*,*,#81,.F.);
#106=ORIENTED_EDGE('',*,*,#80,.T.);
#107=ORIENTED_EDGE('',*,*,#69,.F.);
#108=CONICAL_SURFACE('',#138,62.1,0.523598775598297);
#109=CONICAL_SURFACE('',#147,73.75,0.220248723390688);
#110=ADVANCED_FACE('',(#24),#108,.F.);
#111=ADVANCED_FACE('',(#25),#21,.F.);
#112=ADVANCED_FACE('',(#26,#15),#18,.T.);
#113=ADVANCED_FACE('',(#27),#22,.T.);
#114=ADVANCED_FACE('',(#28),#109,.T.);
#115=ADVANCED_FACE('',(#29,#16),#19,.T.);
#116=ADVANCED_FACE('',(#30),#23,.T.);
#117=ADVANCED_FACE('',(#31,#17),#20,.T.);
#118=CLOSED_SHELL('',(#110,#111,#112,#113,#114,#115,#116,#117));
#119=DERIVED_UNIT_ELEMENT(#121,1.);
#120=DERIVED_UNIT_ELEMENT(#228,-3.);
#121=(
MASS_UNIT()
NAMED_UNIT(*)
SI_UNIT($,.GRAM.)
);
#122=DERIVED_UNIT((#119,#120));
#123=MEASURE_REPRESENTATION_ITEM('density measure',
POSITIVE_RATIO_MEASURE(1.),#122);
#124=PROPERTY_DEFINITION_REPRESENTATION(#129,#126);
#125=PROPERTY_DEFINITION_REPRESENTATION(#130,#127);
#126=REPRESENTATION('material name',(#128),#225);
#127=REPRESENTATION('density',(#123),#225);
#128=DESCRIPTIVE_REPRESENTATION_ITEM('PE','PE');
#129=PROPERTY_DEFINITION('material property','material name',#235);
#130=PROPERTY_DEFINITION('material property','density of part',#235);
#131=DATE_TIME_ROLE('creation_date');
#132=APPLIED_DATE_AND_TIME_ASSIGNMENT(#133,#131,(#235));
#133=DATE_AND_TIME(#134,#135);
#134=CALENDAR_DATE(2021,19,10);
#135=LOCAL_TIME(0,0,0.,#136);
#136=COORDINATED_UNIVERSAL_TIME_OFFSET(0,0,.BEHIND.);
#137=AXIS2_PLACEMENT_3D('placement',#193,#154,#155);
#138=AXIS2_PLACEMENT_3D('',#194,#156,#157);
#139=AXIS2_PLACEMENT_3D('',#196,#158,#159);
#140=AXIS2_PLACEMENT_3D('',#199,#161,#162);
#141=AXIS2_PLACEMENT_3D('',#200,#163,#164);
#142=AXIS2_PLACEMENT_3D('',#203,#166,#167);
#143=AXIS2_PLACEMENT_3D('',#204,#168,#169);
#144=AXIS2_PLACEMENT_3D('',#206,#170,#171);
#145=AXIS2_PLACEMENT_3D('',#207,#172,#173);
#146=AXIS2_PLACEMENT_3D('',#209,#174,#175);
#147=AXIS2_PLACEMENT_3D('',#211,#177,#178);
#148=AXIS2_PLACEMENT_3D('',#213,#179,#180);
#149=AXIS2_PLACEMENT_3D('',#215,#182,#183);
#150=AXIS2_PLACEMENT_3D('',#217,#184,#185);
#151=AXIS2_PLACEMENT_3D('',#218,#186,#187);
#152=AXIS2_PLACEMENT_3D('',#220,#188,#189);
#153=AXIS2_PLACEMENT_3D('',#222,#191,#192);
#154=DIRECTION('axis',(0.,0.,1.));
#155=DIRECTION('refdir',(1.,0.,0.));
#156=DIRECTION('center_axis',(1.,0.,0.));
#157=DIRECTION('ref_axis',(0.,1.,0.));
#158=DIRECTION('center_axis',(1.,0.,0.));
#159=DIRECTION('ref_axis',(0.,0.,-1.));
#160=DIRECTION('',(-0.866025403784439,0.499999999999999,6.12323399573675E-17));
#161=DIRECTION('center_axis',(1.,0.,0.));
#162=DIRECTION('ref_axis',(0.,0.,-1.));
#163=DIRECTION('center_axis',(1.,0.,0.));
#164=DIRECTION('ref_axis',(0.,1.,0.));
#165=DIRECTION('',(-1.,0.,0.));
#166=DIRECTION('center_axis',(1.,0.,0.));
#167=DIRECTION('ref_axis',(0.,0.,-1.));
#168=DIRECTION('center_axis',(-1.,0.,0.));
#169=DIRECTION('ref_axis',(0.,0.,1.));
#170=DIRECTION('center_axis',(1.,0.,0.));
#171=DIRECTION('ref_axis',(0.,0.,-1.));
#172=DIRECTION('center_axis',(1.,0.,0.));
#173=DIRECTION('ref_axis',(0.,1.,0.));
#174=DIRECTION('center_axis',(1.,0.,0.));
#175=DIRECTION('ref_axis',(0.,0.,-1.));
#176=DIRECTION('',(-1.,0.,0.));
#177=DIRECTION('center_axis',(1.,0.,0.));
#178=DIRECTION('ref_axis',(0.,1.,0.));
#179=DIRECTION('center_axis',(1.,0.,0.));
#180=DIRECTION('ref_axis',(0.,0.,-1.));
#181=DIRECTION('',(-0.975843140333233,0.218472344850723,2.67551457823655E-17));
#182=DIRECTION('center_axis',(-1.,0.,0.));
#183=DIRECTION('ref_axis',(0.,0.,1.));
#184=DIRECTION('center_axis',(1.,0.,0.));
#185=DIRECTION('ref_axis',(0.,0.,-1.));
#186=DIRECTION('center_axis',(1.,0.,0.));
#187=DIRECTION('ref_axis',(0.,1.,0.));
#188=DIRECTION('center_axis',(1.,0.,0.));
#189=DIRECTION('ref_axis',(0.,0.,-1.));
#190=DIRECTION('',(-1.,0.,0.));
#191=DIRECTION('center_axis',(1.,0.,0.));
#192=DIRECTION('ref_axis',(0.,0.,-1.));
#193=CARTESIAN_POINT('',(0.,0.,0.));
#194=CARTESIAN_POINT('Origin',(177.807179676972,0.,0.));
#195=CARTESIAN_POINT('',(178.5,-62.5,-7.65404249467096E-15));
#196=CARTESIAN_POINT('Origin',(178.5,0.,0.));
#197=CARTESIAN_POINT('',(177.114359353945,-61.7,-7.55607075073917E-15));
#198=CARTESIAN_POINT('',(177.807179676972,-62.1,-7.60505662270506E-15));
#199=CARTESIAN_POINT('Origin',(177.114359353945,0.,0.));
#200=CARTESIAN_POINT('Origin',(88.5571796769725,0.,0.));
#201=CARTESIAN_POINT('',(0.,-61.7,-7.55607075073917E-15));
#202=CARTESIAN_POINT('',(88.5571796769725,-61.7,-7.55607075073917E-15));
#203=CARTESIAN_POINT('Origin',(0.,0.,0.));
#204=CARTESIAN_POINT('Origin',(-7.44770515470823E-15,70.,0.));
#205=CARTESIAN_POINT('',(0.,-70.,-8.57252759403147E-15));
#206=CARTESIAN_POINT('Origin',(0.,0.,0.));
#207=CARTESIAN_POINT('Origin',(63.5,0.,0.));
#208=CARTESIAN_POINT('',(127.,-70.,-8.57252759403147E-15));
#209=CARTESIAN_POINT('Origin',(127.,0.,0.));
#210=CARTESIAN_POINT('',(63.5,-70.,-8.57252759403147E-15));
#211=CARTESIAN_POINT('Origin',(143.75,0.,0.));
#212=CARTESIAN_POINT('',(160.5,-77.5,-9.49101269339199E-15));
#213=CARTESIAN_POINT('Origin',(160.5,0.,0.));
#214=CARTESIAN_POINT('',(143.75,-73.75,-9.03177014371173E-15));
#215=CARTESIAN_POINT('Origin',(160.5,94.,0.));
#216=CARTESIAN_POINT('',(160.5,-94.,-1.15116799119851E-14));
#217=CARTESIAN_POINT('Origin',(160.5,0.,0.));
#218=CARTESIAN_POINT('Origin',(169.5,0.,0.));
#219=CARTESIAN_POINT('',(178.5,-94.,-1.15116799119851E-14));
#220=CARTESIAN_POINT('Origin',(178.5,0.,0.));
#221=CARTESIAN_POINT('',(169.5,-94.,-1.15116799119851E-14));
#222=CARTESIAN_POINT('Origin',(178.5,62.5,0.));
#223=UNCERTAINTY_MEASURE_WITH_UNIT(LENGTH_MEASURE(0.01),#227,
'DISTANCE_ACCURACY_VALUE',
'Maximum model space distance between geometric entities at asserted c
onnectivities');
#224=UNCERTAINTY_MEASURE_WITH_UNIT(LENGTH_MEASURE(0.01),#227,
'DISTANCE_ACCURACY_VALUE',
'Maximum model space distance between geometric entities at asserted c
onnectivities');
#225=(
GEOMETRIC_REPRESENTATION_CONTEXT(3)
GLOBAL_UNCERTAINTY_ASSIGNED_CONTEXT((#223))
GLOBAL_UNIT_ASSIGNED_CONTEXT((#227,#229,#230))
REPRESENTATION_CONTEXT('','3D')
);
#226=(
GEOMETRIC_REPRESENTATION_CONTEXT(3)
GLOBAL_UNCERTAINTY_ASSIGNED_CONTEXT((#224))
GLOBAL_UNIT_ASSIGNED_CONTEXT((#227,#229,#230))
REPRESENTATION_CONTEXT('','3D')
);
#227=(
LENGTH_UNIT()
NAMED_UNIT(*)
SI_UNIT(.MILLI.,.METRE.)
);
#228=(
LENGTH_UNIT()
NAMED_UNIT(*)
SI_UNIT(.CENTI.,.METRE.)
);
#229=(
NAMED_UNIT(*)
PLANE_ANGLE_UNIT()
SI_UNIT($,.RADIAN.)
);
#230=(
NAMED_UNIT(*)
SI_UNIT($,.STERADIAN.)
SOLID_ANGLE_UNIT()
);
#231=SHAPE_DEFINITION_REPRESENTATION(#232,#233);
#232=PRODUCT_DEFINITION_SHAPE('',$,#235);
#233=SHAPE_REPRESENTATION('',(#137),#225);
#234=PRODUCT_DEFINITION_CONTEXT('part definition',#239,'design');
#235=PRODUCT_DEFINITION('QELFK17-RC-140','QELFK17-RC-140',#236,#234);
#236=PRODUCT_DEFINITION_FORMATION('0',$,#241);
#237=PRODUCT_RELATED_PRODUCT_CATEGORY('QELFK17-RC-140','QELFK17-RC-140',
(#241));
#238=APPLICATION_PROTOCOL_DEFINITION('international standard',
'automotive_design',2009,#239);
#239=APPLICATION_CONTEXT(
'Core Data for Automotive Mechanical Design Process');
#240=PRODUCT_CONTEXT('part definition',#239,'mechanical');
#241=PRODUCT('QELFK17-RC-140','QELFK17-RC-140',
'PE100 Stub Flange with long spigot for Butterfly Valves, \X\D8140, SD
R17 PN10',(#240));
#242=PRESENTATION_STYLE_ASSIGNMENT((#243));
#243=SURFACE_STYLE_USAGE(.BOTH.,#246);
#244=SURFACE_STYLE_RENDERING_WITH_PROPERTIES($,#250,(#245));
#245=SURFACE_STYLE_TRANSPARENT(0.);
#246=SURFACE_SIDE_STYLE('',(#247,#244));
#247=SURFACE_STYLE_FILL_AREA(#248);
#248=FILL_AREA_STYLE('',(#249));
#249=FILL_AREA_STYLE_COLOUR('',#250);
#250=COLOUR_RGB('',0.109803921568627,0.109803921568627,0.129411764705882);
ENDSEC;
END-ISO-10303-21;
