ISO-10303-21;
HEADER;
/* Generated by software containing ST-Developer
 * from STEP Tools, Inc. (www.steptools.com) 
 */

FILE_DESCRIPTION(
/* description */ ('PVC Bend 15°, Ø315, PN12,5'),
/* implementation_level */ '2;1');

FILE_NAME(
/* name */ 
'KLIIV315',
/* time_stamp */ '2022-05-11T16:00:55+02:00',
/* author */ ('COAB Solutions'),
/* organization */ ('GPA Flowsystem'),
/* preprocessor_version */ 'ST-DEVELOPER v18.1',
/* originating_system */ 'www.coabsolutions.com',
/* authorisation */ '');

FILE_SCHEMA (('AUTOMOTIVE_DESIGN { 1 0 10303 214 3 1 1 }'));
ENDSEC;

DATA;
#10=MECHANICAL_DESIGN_GEOMETRIC_PRESENTATION_REPRESENTATION('',(#13),#407);
#11=SHAPE_REPRESENTATION_RELATIONSHIP('SRR','None',#414,#12);
#12=ADVANCED_BREP_SHAPE_REPRESENTATION('',(#14),#406);
#13=STYLED_ITEM('',(#423),#14);
#14=MANIFOLD_SOLID_BREP('Solid2',#179);
#15=FACE_BOUND('',#47,.T.);
#16=FACE_BOUND('',#51,.T.);
#17=FACE_BOUND('',#54,.T.);
#18=FACE_BOUND('',#56,.T.);
#19=PLANE('',#210);
#20=PLANE('',#216);
#21=PLANE('',#221);
#22=PLANE('',#222);
#23=CYLINDRICAL_SURFACE('',#205,157.5);
#24=CYLINDRICAL_SURFACE('',#208,173.);
#25=CYLINDRICAL_SURFACE('',#211,157.5);
#26=CYLINDRICAL_SURFACE('',#214,173.);
#27=TOROIDAL_SURFACE('',#201,972.256526428819,157.5);
#28=TOROIDAL_SURFACE('',#217,972.256526428819,142.);
#29=FACE_OUTER_BOUND('',#41,.T.);
#30=FACE_OUTER_BOUND('',#42,.T.);
#31=FACE_OUTER_BOUND('',#43,.T.);
#32=FACE_OUTER_BOUND('',#44,.T.);
#33=FACE_OUTER_BOUND('',#45,.T.);
#34=FACE_OUTER_BOUND('',#46,.T.);
#35=FACE_OUTER_BOUND('',#48,.T.);
#36=FACE_OUTER_BOUND('',#49,.T.);
#37=FACE_OUTER_BOUND('',#50,.T.);
#38=FACE_OUTER_BOUND('',#52,.T.);
#39=FACE_OUTER_BOUND('',#53,.T.);
#40=FACE_OUTER_BOUND('',#55,.T.);
#41=EDGE_LOOP('',(#121,#122,#123,#124,#125));
#42=EDGE_LOOP('',(#126,#127,#128,#129,#130,#131));
#43=EDGE_LOOP('',(#132,#133,#134,#135,#136));
#44=EDGE_LOOP('',(#137,#138,#139,#140));
#45=EDGE_LOOP('',(#141,#142,#143,#144));
#46=EDGE_LOOP('',(#145));
#47=EDGE_LOOP('',(#146));
#48=EDGE_LOOP('',(#147,#148,#149,#150));
#49=EDGE_LOOP('',(#151,#152,#153,#154));
#50=EDGE_LOOP('',(#155));
#51=EDGE_LOOP('',(#156));
#52=EDGE_LOOP('',(#157,#158,#159,#160));
#53=EDGE_LOOP('',(#161));
#54=EDGE_LOOP('',(#162));
#55=EDGE_LOOP('',(#163));
#56=EDGE_LOOP('',(#164));
#57=B_SPLINE_CURVE_WITH_KNOTS('',3,(#286,#287,#288,#289,#290,#291,#292,
#293,#294,#295,#296,#297,#298,#299,#300,#301,#302,#303,#304,#305),
 .UNSPECIFIED.,.F.,.F.,(4,2,2,2,2,2,2,2,2,4),(-99.2625244701803,-95.7788580949393,
-92.2960332665899,-86.139893749108,-79.9823063190808,-73.8251896201644,
-67.6713604552802,-61.5223431747458,-55.3754097777628,-49.6376370986044),
 .UNSPECIFIED.);
#58=B_SPLINE_CURVE_WITH_KNOTS('',3,(#306,#307,#308,#309,#310,#311,#312,
#313,#314,#315,#316,#317,#318,#319,#320,#321,#322,#323,#324,#325),
 .UNSPECIFIED.,.F.,.F.,(4,2,2,2,2,2,2,2,2,4),(-49.6376370986044,-49.2247799434496,
-43.0681642393213,-36.9094367494631,-30.753331621701,-24.6010548764531,
-18.4511574278096,-12.3017931049439,-6.1516693061424,0.),.UNSPECIFIED.);
#59=B_SPLINE_CURVE_WITH_KNOTS('',3,(#330,#331,#332,#333,#334,#335,#336,
#337,#338,#339,#340,#341,#342,#343,#344,#345,#346,#347,#348,#349),
 .UNSPECIFIED.,.F.,.F.,(4,2,2,2,2,2,2,2,2,4),(-49.6342769221715,-48.7492582926175,
-42.4959076177329,-36.2524264389332,-30.0037609705379,-23.9571585600132,
-18.0168728361914,-12.0955898757548,-6.11270423798037,0.),.UNSPECIFIED.);
#60=B_SPLINE_CURVE_WITH_KNOTS('',3,(#350,#351,#352,#353,#354,#355,#356,
#357,#358,#359,#360,#361,#362,#363,#364,#365,#366,#367,#368,#369),
 .UNSPECIFIED.,.F.,.F.,(4,2,2,2,2,2,2,2,2,4),(-99.2582935802246,-95.3218384352245,
-91.4870579287329,-85.2341861746316,-78.9822128466251,-72.6775821905077,
-66.5669753950789,-60.669051543153,-54.8541314005559,-49.6342769221715),
 .UNSPECIFIED.);
#61=LINE('',#284,#67);
#62=LINE('',#372,#68);
#63=LINE('',#378,#69);
#64=LINE('',#382,#70);
#65=LINE('',#389,#71);
#66=LINE('',#393,#72);
#67=VECTOR('',#229,165.196091128113);
#68=VECTOR('',#236,165.196091128113);
#69=VECTOR('',#243,157.5);
#70=VECTOR('',#248,173.);
#71=VECTOR('',#257,157.5);
#72=VECTOR('',#262,173.);
#73=CIRCLE('',#200,173.);
#74=CIRCLE('',#202,814.756526428819);
#75=CIRCLE('',#204,173.);
#76=CIRCLE('',#206,157.5);
#77=CIRCLE('',#207,157.5);
#78=CIRCLE('',#209,173.);
#79=CIRCLE('',#212,157.5);
#80=CIRCLE('',#213,157.5);
#81=CIRCLE('',#215,173.);
#82=CIRCLE('',#218,142.);
#83=CIRCLE('',#219,830.256526428819);
#84=CIRCLE('',#220,142.);
#85=VERTEX_POINT('',#281);
#86=VERTEX_POINT('',#283);
#87=VERTEX_POINT('',#285);
#88=VERTEX_POINT('',#327);
#89=VERTEX_POINT('',#329);
#90=VERTEX_POINT('',#371);
#91=VERTEX_POINT('',#375);
#92=VERTEX_POINT('',#377);
#93=VERTEX_POINT('',#381);
#94=VERTEX_POINT('',#386);
#95=VERTEX_POINT('',#388);
#96=VERTEX_POINT('',#392);
#97=VERTEX_POINT('',#397);
#98=VERTEX_POINT('',#399);
#99=EDGE_CURVE('',#85,#85,#73,.T.);
#100=EDGE_CURVE('',#85,#86,#61,.T.);
#101=EDGE_CURVE('',#87,#86,#57,.T.);
#102=EDGE_CURVE('',#86,#87,#58,.T.);
#103=EDGE_CURVE('',#86,#88,#74,.T.);
#104=EDGE_CURVE('',#88,#89,#59,.T.);
#105=EDGE_CURVE('',#89,#88,#60,.T.);
#106=EDGE_CURVE('',#88,#90,#62,.T.);
#107=EDGE_CURVE('',#90,#90,#75,.T.);
#108=EDGE_CURVE('',#91,#91,#76,.T.);
#109=EDGE_CURVE('',#91,#92,#63,.T.);
#110=EDGE_CURVE('',#92,#92,#77,.T.);
#111=EDGE_CURVE('',#85,#93,#64,.T.);
#112=EDGE_CURVE('',#93,#93,#78,.T.);
#113=EDGE_CURVE('',#94,#94,#79,.T.);
#114=EDGE_CURVE('',#94,#95,#65,.T.);
#115=EDGE_CURVE('',#95,#95,#80,.T.);
#116=EDGE_CURVE('',#90,#96,#66,.T.);
#117=EDGE_CURVE('',#96,#96,#81,.T.);
#118=EDGE_CURVE('',#97,#97,#82,.T.);
#119=EDGE_CURVE('',#97,#98,#83,.T.);
#120=EDGE_CURVE('',#98,#98,#84,.T.);
#121=ORIENTED_EDGE('',*,*,#99,.T.);
#122=ORIENTED_EDGE('',*,*,#100,.T.);
#123=ORIENTED_EDGE('',*,*,#101,.F.);
#124=ORIENTED_EDGE('',*,*,#102,.F.);
#125=ORIENTED_EDGE('',*,*,#100,.F.);
#126=ORIENTED_EDGE('',*,*,#101,.T.);
#127=ORIENTED_EDGE('',*,*,#103,.T.);
#128=ORIENTED_EDGE('',*,*,#104,.T.);
#129=ORIENTED_EDGE('',*,*,#105,.T.);
#130=ORIENTED_EDGE('',*,*,#103,.F.);
#131=ORIENTED_EDGE('',*,*,#102,.T.);
#132=ORIENTED_EDGE('',*,*,#105,.F.);
#133=ORIENTED_EDGE('',*,*,#104,.F.);
#134=ORIENTED_EDGE('',*,*,#106,.T.);
#135=ORIENTED_EDGE('',*,*,#107,.T.);
#136=ORIENTED_EDGE('',*,*,#106,.F.);
#137=ORIENTED_EDGE('',*,*,#108,.F.);
#138=ORIENTED_EDGE('',*,*,#109,.T.);
#139=ORIENTED_EDGE('',*,*,#110,.F.);
#140=ORIENTED_EDGE('',*,*,#109,.F.);
#141=ORIENTED_EDGE('',*,*,#99,.F.);
#142=ORIENTED_EDGE('',*,*,#111,.T.);
#143=ORIENTED_EDGE('',*,*,#112,.F.);
#144=ORIENTED_EDGE('',*,*,#111,.F.);
#145=ORIENTED_EDGE('',*,*,#112,.T.);
#146=ORIENTED_EDGE('',*,*,#110,.T.);
#147=ORIENTED_EDGE('',*,*,#113,.T.);
#148=ORIENTED_EDGE('',*,*,#114,.T.);
#149=ORIENTED_EDGE('',*,*,#115,.T.);
#150=ORIENTED_EDGE('',*,*,#114,.F.);
#151=ORIENTED_EDGE('',*,*,#107,.F.);
#152=ORIENTED_EDGE('',*,*,#116,.T.);
#153=ORIENTED_EDGE('',*,*,#117,.T.);
#154=ORIENTED_EDGE('',*,*,#116,.F.);
#155=ORIENTED_EDGE('',*,*,#117,.F.);
#156=ORIENTED_EDGE('',*,*,#115,.F.);
#157=ORIENTED_EDGE('',*,*,#118,.F.);
#158=ORIENTED_EDGE('',*,*,#119,.T.);
#159=ORIENTED_EDGE('',*,*,#120,.T.);
#160=ORIENTED_EDGE('',*,*,#119,.F.);
#161=ORIENTED_EDGE('',*,*,#108,.T.);
#162=ORIENTED_EDGE('',*,*,#118,.T.);
#163=ORIENTED_EDGE('',*,*,#113,.F.);
#164=ORIENTED_EDGE('',*,*,#120,.F.);
#165=CONICAL_SURFACE('',#199,165.196091128113,0.785398163397432);
#166=CONICAL_SURFACE('',#203,165.196091128113,0.785398163397451);
#167=ADVANCED_FACE('',(#29),#165,.T.);
#168=ADVANCED_FACE('',(#30),#27,.T.);
#169=ADVANCED_FACE('',(#31),#166,.T.);
#170=ADVANCED_FACE('',(#32),#23,.F.);
#171=ADVANCED_FACE('',(#33),#24,.T.);
#172=ADVANCED_FACE('',(#34,#15),#19,.T.);
#173=ADVANCED_FACE('',(#35),#25,.F.);
#174=ADVANCED_FACE('',(#36),#26,.T.);
#175=ADVANCED_FACE('',(#37,#16),#20,.F.);
#176=ADVANCED_FACE('',(#38),#28,.F.);
#177=ADVANCED_FACE('',(#39,#17),#21,.T.);
#178=ADVANCED_FACE('',(#40,#18),#22,.F.);
#179=CLOSED_SHELL('',(#167,#168,#169,#170,#171,#172,#173,#174,#175,#176,
#177,#178));
#180=DERIVED_UNIT_ELEMENT(#182,1.);
#181=DERIVED_UNIT_ELEMENT(#409,-3.);
#182=(
MASS_UNIT()
NAMED_UNIT(*)
SI_UNIT($,.GRAM.)
);
#183=DERIVED_UNIT((#180,#181));
#184=MEASURE_REPRESENTATION_ITEM('density measure',
POSITIVE_RATIO_MEASURE(1.),#183);
#185=PROPERTY_DEFINITION_REPRESENTATION(#190,#187);
#186=PROPERTY_DEFINITION_REPRESENTATION(#191,#188);
#187=REPRESENTATION('material name',(#189),#406);
#188=REPRESENTATION('density',(#184),#406);
#189=DESCRIPTIVE_REPRESENTATION_ITEM('PVC','PVC');
#190=PROPERTY_DEFINITION('material property','material name',#416);
#191=PROPERTY_DEFINITION('material property','density of part',#416);
#192=DATE_TIME_ROLE('creation_date');
#193=APPLIED_DATE_AND_TIME_ASSIGNMENT(#194,#192,(#416));
#194=DATE_AND_TIME(#195,#196);
#195=CALENDAR_DATE(2021,19,10);
#196=LOCAL_TIME(0,0,0.,#197);
#197=COORDINATED_UNIVERSAL_TIME_OFFSET(0,0,.BEHIND.);
#198=AXIS2_PLACEMENT_3D('placement',#279,#223,#224);
#199=AXIS2_PLACEMENT_3D('',#280,#225,#226);
#200=AXIS2_PLACEMENT_3D('',#282,#227,#228);
#201=AXIS2_PLACEMENT_3D('',#326,#230,#231);
#202=AXIS2_PLACEMENT_3D('',#328,#232,#233);
#203=AXIS2_PLACEMENT_3D('',#370,#234,#235);
#204=AXIS2_PLACEMENT_3D('',#373,#237,#238);
#205=AXIS2_PLACEMENT_3D('',#374,#239,#240);
#206=AXIS2_PLACEMENT_3D('',#376,#241,#242);
#207=AXIS2_PLACEMENT_3D('',#379,#244,#245);
#208=AXIS2_PLACEMENT_3D('',#380,#246,#247);
#209=AXIS2_PLACEMENT_3D('',#383,#249,#250);
#210=AXIS2_PLACEMENT_3D('',#384,#251,#252);
#211=AXIS2_PLACEMENT_3D('',#385,#253,#254);
#212=AXIS2_PLACEMENT_3D('',#387,#255,#256);
#213=AXIS2_PLACEMENT_3D('',#390,#258,#259);
#214=AXIS2_PLACEMENT_3D('',#391,#260,#261);
#215=AXIS2_PLACEMENT_3D('',#394,#263,#264);
#216=AXIS2_PLACEMENT_3D('',#395,#265,#266);
#217=AXIS2_PLACEMENT_3D('',#396,#267,#268);
#218=AXIS2_PLACEMENT_3D('',#398,#269,#270);
#219=AXIS2_PLACEMENT_3D('',#400,#271,#272);
#220=AXIS2_PLACEMENT_3D('',#401,#273,#274);
#221=AXIS2_PLACEMENT_3D('',#402,#275,#276);
#222=AXIS2_PLACEMENT_3D('',#403,#277,#278);
#223=DIRECTION('axis',(0.,0.,1.));
#224=DIRECTION('refdir',(1.,0.,0.));
#225=DIRECTION('center_axis',(0.258819045102522,0.965925826289068,0.));
#226=DIRECTION('ref_axis',(-0.965925826289068,0.258819045102522,0.));
#227=DIRECTION('center_axis',(-0.258819045102522,-0.965925826289068,0.));
#228=DIRECTION('ref_axis',(-0.965925826289068,0.258819045102522,0.));
#229=DIRECTION('',(-0.866025403784431,-0.500000000000014,8.65956056235479E-17));
#230=DIRECTION('center_axis',(0.,0.,-1.));
#231=DIRECTION('ref_axis',(-1.,0.,0.));
#232=DIRECTION('center_axis',(0.,0.,1.));
#233=DIRECTION('ref_axis',(-1.,0.,0.));
#234=DIRECTION('center_axis',(0.,-1.,0.));
#235=DIRECTION('ref_axis',(-1.,0.,0.));
#236=DIRECTION('',(0.707106781186549,-0.707106781186546,-8.65956056235495E-17));
#237=DIRECTION('center_axis',(0.,1.,0.));
#238=DIRECTION('ref_axis',(-1.,0.,0.));
#239=DIRECTION('center_axis',(-0.258819045102522,-0.965925826289068,0.));
#240=DIRECTION('ref_axis',(0.965925826289068,-0.258819045102522,0.));
#241=DIRECTION('center_axis',(0.258819045102521,0.965925826289068,0.));
#242=DIRECTION('ref_axis',(-0.965925826289068,0.258819045102521,0.));
#243=DIRECTION('',(0.258819045102522,0.965925826289068,0.));
#244=DIRECTION('center_axis',(-0.258819045102522,-0.965925826289068,0.));
#245=DIRECTION('ref_axis',(0.965925826289068,-0.258819045102522,0.));
#246=DIRECTION('center_axis',(-0.258819045102522,-0.965925826289068,0.));
#247=DIRECTION('ref_axis',(-0.965925826289068,0.258819045102522,0.));
#248=DIRECTION('',(0.258819045102522,0.965925826289068,0.));
#249=DIRECTION('center_axis',(0.258819045102522,0.965925826289068,0.));
#250=DIRECTION('ref_axis',(-0.965925826289068,0.258819045102522,0.));
#251=DIRECTION('center_axis',(0.258819045102522,0.965925826289068,0.));
#252=DIRECTION('ref_axis',(0.,0.,1.));
#253=DIRECTION('center_axis',(0.,1.,0.));
#254=DIRECTION('ref_axis',(1.,0.,0.));
#255=DIRECTION('center_axis',(1.18494770780997E-17,1.,0.));
#256=DIRECTION('ref_axis',(-1.,1.18494770780997E-17,0.));
#257=DIRECTION('',(0.,-1.,0.));
#258=DIRECTION('center_axis',(0.,-1.,0.));
#259=DIRECTION('ref_axis',(1.,0.,0.));
#260=DIRECTION('center_axis',(0.,1.,0.));
#261=DIRECTION('ref_axis',(-1.,0.,0.));
#262=DIRECTION('',(0.,-1.,0.));
#263=DIRECTION('center_axis',(0.,1.,0.));
#264=DIRECTION('ref_axis',(-1.,0.,0.));
#265=DIRECTION('center_axis',(0.,1.,0.));
#266=DIRECTION('ref_axis',(0.,0.,1.));
#267=DIRECTION('center_axis',(0.,0.,-1.));
#268=DIRECTION('ref_axis',(-1.,0.,0.));
#269=DIRECTION('center_axis',(-0.258819045102521,-0.965925826289068,0.));
#270=DIRECTION('ref_axis',(0.965925826289068,-0.258819045102521,0.));
#271=DIRECTION('center_axis',(0.,0.,1.));
#272=DIRECTION('ref_axis',(-1.,0.,0.));
#273=DIRECTION('center_axis',(-1.18494770780997E-17,-1.,0.));
#274=DIRECTION('ref_axis',(1.,-1.18494770780997E-17,0.));
#275=DIRECTION('center_axis',(0.258819045102521,0.965925826289068,0.));
#276=DIRECTION('ref_axis',(0.,0.,1.));
#277=DIRECTION('center_axis',(1.18494770780997E-17,1.,0.));
#278=DIRECTION('ref_axis',(0.,0.,1.));
#279=CARTESIAN_POINT('',(0.,0.,0.));
#280=CARTESIAN_POINT('Origin',(31.1090375308334,432.100508639638,0.));
#281=CARTESIAN_POINT('',(200.234005721131,394.862810962265,-2.11863896252492E-14));
#282=CARTESIAN_POINT('Origin',(33.1288377731225,439.638505765001,0.));
#283=CARTESIAN_POINT('',(181.427692335177,384.004980866419,-3.18574149322204E-14));
#284=CARTESIAN_POINT('',(190.67620835348,389.344614079191,-2.02306864231698E-14));
#285=CARTESIAN_POINT('',(-122.93993640874,465.298605832434,0.));
#286=CARTESIAN_POINT('Ctrl Pts',(-122.939936408739,465.298605832433,0.));
#287=CARTESIAN_POINT('Ctrl Pts',(-122.939936408739,465.298605832433,-11.6122212508035));
#288=CARTESIAN_POINT('Ctrl Pts',(-121.699163636238,464.96693418627,-23.1888862842966));
#289=CARTESIAN_POINT('Ctrl Pts',(-116.781970734366,463.652545849485,-45.8458522394414));
#290=CARTESIAN_POINT('Ctrl Pts',(-113.121187702594,462.674009262884,-56.8569338069871));
#291=CARTESIAN_POINT('Ctrl Pts',(-99.8466157067781,459.125813500524,-85.9004506979599));
#292=CARTESIAN_POINT('Ctrl Pts',(-87.9473274914883,455.945326722065,-102.556980102147));
#293=CARTESIAN_POINT('Ctrl Pts',(-58.6441818152046,448.114002147467,-130.211211696326));
#294=CARTESIAN_POINT('Ctrl Pts',(-41.5196599648738,443.537832695776,-140.942751833221));
#295=CARTESIAN_POINT('Ctrl Pts',(-4.26018329143408,433.58260319536,-155.001858250023));
#296=CARTESIAN_POINT('Ctrl Pts',(15.5179920859756,428.298888545566,-158.195456350122));
#297=CARTESIAN_POINT('Ctrl Pts',(55.13299103138,417.717776010907,-156.552304910818));
#298=CARTESIAN_POINT('Ctrl Pts',(74.5912891918314,412.521493105502,-151.73554126221));
#299=CARTESIAN_POINT('Ctrl Pts',(110.615000186449,402.903290323087,-134.660034817985));
#300=CARTESIAN_POINT('Ctrl Pts',(126.839012335612,398.572512271355,-122.570001753331));
#301=CARTESIAN_POINT('Ctrl Pts',(153.895978490881,391.351105379485,-92.6422325487571));
#302=CARTESIAN_POINT('Ctrl Pts',(164.472607753092,388.528852968286,-75.0919618750583));
#303=CARTESIAN_POINT('Ctrl Pts',(178.068925256716,384.901050716017,-38.0597852704298));
#304=CARTESIAN_POINT('Ctrl Pts',(181.427692335177,384.004980866419,-19.1030904691848));
#305=CARTESIAN_POINT('Ctrl Pts',(181.427692335177,384.004980866419,-3.99680288865056E-14));
#306=CARTESIAN_POINT('Ctrl Pts',(181.427692335177,384.004980866419,-4.63518112781003E-14));
#307=CARTESIAN_POINT('Ctrl Pts',(181.427692335177,384.004980866419,1.37454863180956));
#308=CARTESIAN_POINT('Ctrl Pts',(181.410303662281,384.009620114168,2.74985521470666));
#309=CARTESIAN_POINT('Ctrl Pts',(180.855997290298,384.157507567037,24.6405705490948));
#310=CARTESIAN_POINT('Ctrl Pts',(176.466782267545,385.328489184689,44.8538254512351));
#311=CARTESIAN_POINT('Ctrl Pts',(160.441622182899,389.60448265083,82.4052257409534));
#312=CARTESIAN_POINT('Ctrl Pts',(148.956833248137,392.669199108658,99.3824042026599));
#313=CARTESIAN_POINT('Ctrl Pts',(120.348315381077,400.305075630418,127.81320329674));
#314=CARTESIAN_POINT('Ctrl Pts',(103.500718543745,404.802565691965,138.997165215279));
#315=CARTESIAN_POINT('Ctrl Pts',(66.6233744645652,414.649220378928,154.044105270291));
#316=CARTESIAN_POINT('Ctrl Pts',(46.9477614675369,419.90383156584,157.767949320919));
#317=CARTESIAN_POINT('Ctrl Pts',(7.33310869707974,430.485376965676,157.202170654836));
#318=CARTESIAN_POINT('Ctrl Pts',(-12.227807863923,435.711295015568,152.921045384121));
#319=CARTESIAN_POINT('Ctrl Pts',(-48.6633809092296,445.44676734464,136.8437220304));
#320=CARTESIAN_POINT('Ctrl Pts',(-65.1904533681495,449.863429478054,125.201647539226));
#321=CARTESIAN_POINT('Ctrl Pts',(-93.0080525126829,457.297933220033,96.0164412717898));
#322=CARTESIAN_POINT('Ctrl Pts',(-104.032156632263,460.244556861103,78.751413969806));
#323=CARTESIAN_POINT('Ctrl Pts',(-119.070886054282,464.264352566726,40.815021365754));
#324=CARTESIAN_POINT('Ctrl Pts',(-122.939936408739,465.298605832433,20.505564353808));
#325=CARTESIAN_POINT('Ctrl Pts',(-122.939936408739,465.298605832433,0.));
#326=CARTESIAN_POINT('Origin',(972.256526428819,188.,0.));
#327=CARTESIAN_POINT('',(157.644709420513,203.355290579487,4.07303382327898E-14));
#328=CARTESIAN_POINT('Origin',(972.256526428819,188.,1.92881870865708E-14));
#329=CARTESIAN_POINT('',(-157.392182256225,203.607817743775,0.));
#330=CARTESIAN_POINT('Ctrl Pts',(157.644709420513,203.355290579487,4.88498130835069E-14));
#331=CARTESIAN_POINT('Ctrl Pts',(157.644709420513,203.355290579487,-2.94323083537141));
#332=CARTESIAN_POINT('Ctrl Pts',(157.562196513789,203.355379317248,-5.88927140325109));
#333=CARTESIAN_POINT('Ctrl Pts',(156.227273619632,203.356813787753,-29.6463484533061));
#334=CARTESIAN_POINT('Ctrl Pts',(150.937272424866,203.362542700075,-50.0200083253547));
#335=CARTESIAN_POINT('Ctrl Pts',(132.746021123225,203.381447226282,-87.4941434254432));
#336=CARTESIAN_POINT('Ctrl Pts',(120.036022951924,203.394384579212,-104.230550881741));
#337=CARTESIAN_POINT('Ctrl Pts',(88.8335429365718,203.42437266571,-131.804871309124));
#338=CARTESIAN_POINT('Ctrl Pts',(70.643841688569,203.441099685535,-142.366078181441));
#339=CARTESIAN_POINT('Ctrl Pts',(31.8491456338931,203.474609908082,-155.583164601126));
#340=CARTESIAN_POINT('Ctrl Pts',(11.6990954384155,203.491064569226,-158.361727983116));
#341=CARTESIAN_POINT('Ctrl Pts',(-28.1984735516381,203.521875337527,-156.193106887664));
#342=CARTESIAN_POINT('Ctrl Pts',(-47.5916659796399,203.536002604616,-151.400211356831));
#343=CARTESIAN_POINT('Ctrl Pts',(-83.526204682675,203.561056884676,-134.907263130956));
#344=CARTESIAN_POINT('Ctrl Pts',(-99.758451341538,203.571787236228,-123.375314393228));
#345=CARTESIAN_POINT('Ctrl Pts',(-127.258141328047,203.589456735253,-94.7690211185402));
#346=CARTESIAN_POINT('Ctrl Pts',(-138.223562829001,203.596207288103,-77.8968703332988));
#347=CARTESIAN_POINT('Ctrl Pts',(-153.437855986558,203.605475456576,-40.5589635271704));
#348=CARTESIAN_POINT('Ctrl Pts',(-157.392182256225,203.607817743775,-20.3756807932679));
#349=CARTESIAN_POINT('Ctrl Pts',(-157.392182256225,203.607817743775,4.44089209850063E-15));
#350=CARTESIAN_POINT('Ctrl Pts',(-157.392182256225,203.607817743775,2.22044604925031E-15));
#351=CARTESIAN_POINT('Ctrl Pts',(-157.392182256225,203.607817743775,13.1215171500004));
#352=CARTESIAN_POINT('Ctrl Pts',(-155.752285111943,203.606841242975,26.1917228494154));
#353=CARTESIAN_POINT('Ctrl Pts',(-149.352777401282,203.602985384038,51.2929139807498));
#354=CARTESIAN_POINT('Ctrl Pts',(-144.698587888518,203.60016952843,63.2488757799521));
#355=CARTESIAN_POINT('Ctrl Pts',(-128.789862012714,203.590365356702,92.8729857060736));
#356=CARTESIAN_POINT('Ctrl Pts',(-115.381024004247,203.581967041286,109.096675892854));
#357=CARTESIAN_POINT('Ctrl Pts',(-83.0287969423161,203.560675806704,135.379699885482));
#358=CARTESIAN_POINT('Ctrl Pts',(-64.4056066680152,203.547977025111,145.180446589218));
#359=CARTESIAN_POINT('Ctrl Pts',(-24.2578593751133,203.518923052341,157.014321772295));
#360=CARTESIAN_POINT('Ctrl Pts',(-3.11300553913415,203.502809098962,158.86260119857));
#361=CARTESIAN_POINT('Ctrl Pts',(38.0108247515543,203.469467762442,154.226885759676));
#362=CARTESIAN_POINT('Ctrl Pts',(57.618249268534,203.452596631128,148.041235225829));
#363=CARTESIAN_POINT('Ctrl Pts',(92.7668883730733,203.420733258725,128.887692830139));
#364=CARTESIAN_POINT('Ctrl Pts',(108.117410658023,203.405989412478,116.33144087802));
#365=CARTESIAN_POINT('Ctrl Pts',(133.224969175493,203.38103124416,86.4323492677172));
#366=CARTESIAN_POINT('Ctrl Pts',(142.843336490651,203.370997398432,69.4146015270523));
#367=CARTESIAN_POINT('Ctrl Pts',(154.774101840697,203.358403681579,34.6207070134982));
#368=CARTESIAN_POINT('Ctrl Pts',(157.644709420513,203.355290579487,17.3592240252325));
#369=CARTESIAN_POINT('Ctrl Pts',(157.644709420513,203.355290579487,5.32907051820075E-14));
#370=CARTESIAN_POINT('Origin',(0.,195.803908871887,0.));
#371=CARTESIAN_POINT('',(173.,188.,-2.11863896252492E-14));
#372=CARTESIAN_POINT('',(165.196091128113,195.803908871887,-2.02306864231698E-14));
#373=CARTESIAN_POINT('Origin',(0.,188.,0.));
#374=CARTESIAN_POINT('Origin',(81.7868182523966,621.232561107346,0.));
#375=CARTESIAN_POINT('',(-119.004479867405,480.402505368648,0.));
#376=CARTESIAN_POINT('Origin',(33.1288377731227,439.638505765001,0.));
#377=CARTESIAN_POINT('',(-70.3464993881316,661.996560710993,1.92881870865708E-14));
#378=CARTESIAN_POINT('',(-70.3464993881316,661.996560710993,-1.92881870865708E-14));
#379=CARTESIAN_POINT('Origin',(81.7868182523966,621.232561107346,0.));
#380=CARTESIAN_POINT('Origin',(81.7868182523966,621.232561107346,0.));
#381=CARTESIAN_POINT('',(248.891986200405,576.456866304609,2.11863896252492E-14));
#382=CARTESIAN_POINT('',(248.891986200405,576.456866304609,2.11863896252492E-14));
#383=CARTESIAN_POINT('Origin',(81.7868182523966,621.232561107346,0.));
#384=CARTESIAN_POINT('Origin',(81.7868182523966,621.232561107346,0.));
#385=CARTESIAN_POINT('Origin',(0.,0.,0.));
#386=CARTESIAN_POINT('',(-157.5,188.,1.92881870865708E-14));
#387=CARTESIAN_POINT('Origin',(-1.39664899375665E-30,188.,0.));
#388=CARTESIAN_POINT('',(-157.5,0.,1.92881870865708E-14));
#389=CARTESIAN_POINT('',(-157.5,0.,1.92881870865708E-14));
#390=CARTESIAN_POINT('Origin',(0.,0.,0.));
#391=CARTESIAN_POINT('Origin',(0.,0.,0.));
#392=CARTESIAN_POINT('',(173.,0.,-2.11863896252492E-14));
#393=CARTESIAN_POINT('',(173.,0.,-2.11863896252492E-14));
#394=CARTESIAN_POINT('Origin',(0.,0.,0.));
#395=CARTESIAN_POINT('Origin',(0.,0.,0.));
#396=CARTESIAN_POINT('Origin',(972.256526428819,188.,0.));
#397=CARTESIAN_POINT('',(170.29030510617,402.886201360443,1.73899845478924E-14));
#398=CARTESIAN_POINT('Origin',(33.1288377731227,439.638505765001,0.));
#399=CARTESIAN_POINT('',(142.,188.,1.73899845478924E-14));
#400=CARTESIAN_POINT('Origin',(972.256526428819,188.,1.73899845478924E-14));
#401=CARTESIAN_POINT('Origin',(-1.39664899375665E-30,188.,0.));
#402=CARTESIAN_POINT('Origin',(33.1288377731227,439.638505765001,0.));
#403=CARTESIAN_POINT('Origin',(-1.96103634688905E-64,188.,0.));
#404=UNCERTAINTY_MEASURE_WITH_UNIT(LENGTH_MEASURE(0.01),#408,
'DISTANCE_ACCURACY_VALUE',
'Maximum model space distance between geometric entities at asserted c
onnectivities');
#405=UNCERTAINTY_MEASURE_WITH_UNIT(LENGTH_MEASURE(0.01),#408,
'DISTANCE_ACCURACY_VALUE',
'Maximum model space distance between geometric entities at asserted c
onnectivities');
#406=(
GEOMETRIC_REPRESENTATION_CONTEXT(3)
GLOBAL_UNCERTAINTY_ASSIGNED_CONTEXT((#404))
GLOBAL_UNIT_ASSIGNED_CONTEXT((#408,#410,#411))
REPRESENTATION_CONTEXT('','3D')
);
#407=(
GEOMETRIC_REPRESENTATION_CONTEXT(3)
GLOBAL_UNCERTAINTY_ASSIGNED_CONTEXT((#405))
GLOBAL_UNIT_ASSIGNED_CONTEXT((#408,#410,#411))
REPRESENTATION_CONTEXT('','3D')
);
#408=(
LENGTH_UNIT()
NAMED_UNIT(*)
SI_UNIT(.MILLI.,.METRE.)
);
#409=(
LENGTH_UNIT()
NAMED_UNIT(*)
SI_UNIT(.CENTI.,.METRE.)
);
#410=(
NAMED_UNIT(*)
PLANE_ANGLE_UNIT()
SI_UNIT($,.RADIAN.)
);
#411=(
NAMED_UNIT(*)
SI_UNIT($,.STERADIAN.)
SOLID_ANGLE_UNIT()
);
#412=SHAPE_DEFINITION_REPRESENTATION(#413,#414);
#413=PRODUCT_DEFINITION_SHAPE('',$,#416);
#414=SHAPE_REPRESENTATION('',(#198),#406);
#415=PRODUCT_DEFINITION_CONTEXT('part definition',#420,'design');
#416=PRODUCT_DEFINITION('KLIIV315','KLIIV315',#417,#415);
#417=PRODUCT_DEFINITION_FORMATION('0',$,#422);
#418=PRODUCT_RELATED_PRODUCT_CATEGORY('KLIIV315','KLIIV315',(#422));
#419=APPLICATION_PROTOCOL_DEFINITION('international standard',
'automotive_design',2009,#420);
#420=APPLICATION_CONTEXT(
'Core Data for Automotive Mechanical Design Process');
#421=PRODUCT_CONTEXT('part definition',#420,'mechanical');
#422=PRODUCT('KLIIV315','KLIIV315','PVC Bend 15\X\B0, \X\D8315, PN12,5',
(#421));
#423=PRESENTATION_STYLE_ASSIGNMENT((#424));
#424=SURFACE_STYLE_USAGE(.BOTH.,#427);
#425=SURFACE_STYLE_RENDERING_WITH_PROPERTIES($,#431,(#426));
#426=SURFACE_STYLE_TRANSPARENT(0.);
#427=SURFACE_SIDE_STYLE('',(#428,#425));
#428=SURFACE_STYLE_FILL_AREA(#429);
#429=FILL_AREA_STYLE('',(#430));
#430=FILL_AREA_STYLE_COLOUR('',#431);
#431=COLOUR_RGB('',0.250980392156863,0.290196078431373,0.329411764705882);
ENDSEC;
END-ISO-10303-21;
