ISO-10303-21;
HEADER;
/* Generated by software containing ST-Developer
 * from STEP Tools, Inc. (www.steptools.com) 
 */
/* OPTION: using custom renumber hook */

FILE_DESCRIPTION(
/* description */ ('STEP AP203'),
/* implementation_level */ '2;1');

FILE_NAME(
/* name */ 
'AGRU_70197221671_Poly-Flo Dog Bone_with transition to single tube_PE 
100-RC black_225_160  SDR17_11 (architecture400)',
/* time_stamp */ '2022-10-25T12:47:14+02:00',
/* author */ ('License CC BY-ND 4.0'),
/* organization */ ('CADENAS'),
/* preprocessor_version */ 'ST-DEVELOPER v18.102',
/* originating_system */ 'PARTsolutions',
/* authorisation */ '  ');

FILE_SCHEMA (('CONFIG_CONTROL_DESIGN'));
ENDSEC;

DATA;
#10=PROPERTY_DEFINITION_REPRESENTATION(#14,#12);
#11=PROPERTY_DEFINITION_REPRESENTATION(#15,#13);
#12=REPRESENTATION('',(#16),#317);
#13=REPRESENTATION('',(#17),#317);
#14=PROPERTY_DEFINITION('pmi validation property','',#322);
#15=PROPERTY_DEFINITION('pmi validation property','',#322);
#16=VALUE_REPRESENTATION_ITEM('number of annotations',COUNT_MEASURE(0.));
#17=VALUE_REPRESENTATION_ITEM('number of views',COUNT_MEASURE(0.));
#18=SHAPE_REPRESENTATION_RELATIONSHIP('','',#185,#19);
#19=ADVANCED_BREP_SHAPE_REPRESENTATION('',(#183),#317);
#20=TOROIDAL_SURFACE('',#196,84.8000000000001,4.80000000000005);
#21=TOROIDAL_SURFACE('',#200,108.,4.50000000000001);
#22=TOROIDAL_SURFACE('',#208,84.5,4.5);
#23=TOROIDAL_SURFACE('',#212,94.6,4.5);
#24=CYLINDRICAL_SURFACE('',#190,65.4);
#25=CYLINDRICAL_SURFACE('',#194,80.);
#26=CYLINDRICAL_SURFACE('',#202,112.5);
#27=CYLINDRICAL_SURFACE('',#206,80.);
#28=CYLINDRICAL_SURFACE('',#214,99.1);
#29=ORIENTED_EDGE('',*,*,#57,.T.);
#30=ORIENTED_EDGE('',*,*,#58,.F.);
#31=ORIENTED_EDGE('',*,*,#59,.T.);
#32=ORIENTED_EDGE('',*,*,#57,.F.);
#33=ORIENTED_EDGE('',*,*,#60,.T.);
#34=ORIENTED_EDGE('',*,*,#59,.F.);
#35=ORIENTED_EDGE('',*,*,#61,.T.);
#36=ORIENTED_EDGE('',*,*,#60,.F.);
#37=ORIENTED_EDGE('',*,*,#61,.F.);
#38=ORIENTED_EDGE('',*,*,#62,.T.);
#39=ORIENTED_EDGE('',*,*,#63,.T.);
#40=ORIENTED_EDGE('',*,*,#62,.F.);
#41=ORIENTED_EDGE('',*,*,#64,.T.);
#42=ORIENTED_EDGE('',*,*,#63,.F.);
#43=ORIENTED_EDGE('',*,*,#65,.T.);
#44=ORIENTED_EDGE('',*,*,#64,.F.);
#45=ORIENTED_EDGE('',*,*,#66,.T.);
#46=ORIENTED_EDGE('',*,*,#65,.F.);
#47=ORIENTED_EDGE('',*,*,#58,.T.);
#48=ORIENTED_EDGE('',*,*,#67,.F.);
#49=ORIENTED_EDGE('',*,*,#68,.F.);
#50=ORIENTED_EDGE('',*,*,#67,.T.);
#51=ORIENTED_EDGE('',*,*,#69,.F.);
#52=ORIENTED_EDGE('',*,*,#68,.T.);
#53=ORIENTED_EDGE('',*,*,#70,.F.);
#54=ORIENTED_EDGE('',*,*,#69,.T.);
#55=ORIENTED_EDGE('',*,*,#66,.F.);
#56=ORIENTED_EDGE('',*,*,#70,.T.);
#57=EDGE_CURVE('',#71,#71,#85,.T.);
#58=EDGE_CURVE('',#72,#72,#86,.T.);
#59=EDGE_CURVE('',#73,#73,#87,.T.);
#60=EDGE_CURVE('',#74,#74,#88,.T.);
#61=EDGE_CURVE('',#75,#75,#89,.T.);
#62=EDGE_CURVE('',#76,#76,#90,.T.);
#63=EDGE_CURVE('',#77,#77,#91,.T.);
#64=EDGE_CURVE('',#78,#78,#92,.T.);
#65=EDGE_CURVE('',#79,#79,#93,.T.);
#66=EDGE_CURVE('',#80,#80,#94,.T.);
#67=EDGE_CURVE('',#81,#81,#95,.T.);
#68=EDGE_CURVE('',#82,#82,#96,.T.);
#69=EDGE_CURVE('',#83,#83,#97,.T.);
#70=EDGE_CURVE('',#84,#84,#98,.T.);
#71=VERTEX_POINT('',#276);
#72=VERTEX_POINT('',#278);
#73=VERTEX_POINT('',#281);
#74=VERTEX_POINT('',#284);
#75=VERTEX_POINT('',#287);
#76=VERTEX_POINT('',#290);
#77=VERTEX_POINT('',#293);
#78=VERTEX_POINT('',#296);
#79=VERTEX_POINT('',#299);
#80=VERTEX_POINT('',#302);
#81=VERTEX_POINT('',#305);
#82=VERTEX_POINT('',#308);
#83=VERTEX_POINT('',#311);
#84=VERTEX_POINT('',#314);
#85=CIRCLE('',#188,65.4);
#86=CIRCLE('',#189,80.);
#87=CIRCLE('',#191,65.4);
#88=CIRCLE('',#193,80.);
#89=CIRCLE('',#195,80.);
#90=CIRCLE('',#197,84.8);
#91=CIRCLE('',#199,108.);
#92=CIRCLE('',#201,112.5);
#93=CIRCLE('',#203,112.5);
#94=CIRCLE('',#205,99.1);
#95=CIRCLE('',#207,80.);
#96=CIRCLE('',#209,84.5);
#97=CIRCLE('',#211,94.6);
#98=CIRCLE('',#213,99.1);
#99=EDGE_LOOP('',(#29));
#100=EDGE_LOOP('',(#30));
#101=EDGE_LOOP('',(#31));
#102=EDGE_LOOP('',(#32));
#103=EDGE_LOOP('',(#33));
#104=EDGE_LOOP('',(#34));
#105=EDGE_LOOP('',(#35));
#106=EDGE_LOOP('',(#36));
#107=EDGE_LOOP('',(#37));
#108=EDGE_LOOP('',(#38));
#109=EDGE_LOOP('',(#39));
#110=EDGE_LOOP('',(#40));
#111=EDGE_LOOP('',(#41));
#112=EDGE_LOOP('',(#42));
#113=EDGE_LOOP('',(#43));
#114=EDGE_LOOP('',(#44));
#115=EDGE_LOOP('',(#45));
#116=EDGE_LOOP('',(#46));
#117=EDGE_LOOP('',(#47));
#118=EDGE_LOOP('',(#48));
#119=EDGE_LOOP('',(#49));
#120=EDGE_LOOP('',(#50));
#121=EDGE_LOOP('',(#51));
#122=EDGE_LOOP('',(#52));
#123=EDGE_LOOP('',(#53));
#124=EDGE_LOOP('',(#54));
#125=EDGE_LOOP('',(#55));
#126=EDGE_LOOP('',(#56));
#127=FACE_BOUND('',#99,.T.);
#128=FACE_BOUND('',#100,.T.);
#129=FACE_BOUND('',#101,.T.);
#130=FACE_BOUND('',#102,.T.);
#131=FACE_BOUND('',#103,.T.);
#132=FACE_BOUND('',#104,.T.);
#133=FACE_BOUND('',#105,.T.);
#134=FACE_BOUND('',#106,.T.);
#135=FACE_BOUND('',#107,.T.);
#136=FACE_BOUND('',#108,.T.);
#137=FACE_BOUND('',#109,.T.);
#138=FACE_BOUND('',#110,.T.);
#139=FACE_BOUND('',#111,.T.);
#140=FACE_BOUND('',#112,.T.);
#141=FACE_BOUND('',#113,.T.);
#142=FACE_BOUND('',#114,.T.);
#143=FACE_BOUND('',#115,.T.);
#144=FACE_BOUND('',#116,.T.);
#145=FACE_BOUND('',#117,.T.);
#146=FACE_BOUND('',#118,.T.);
#147=FACE_BOUND('',#119,.T.);
#148=FACE_BOUND('',#120,.T.);
#149=FACE_BOUND('',#121,.T.);
#150=FACE_BOUND('',#122,.T.);
#151=FACE_BOUND('',#123,.T.);
#152=FACE_BOUND('',#124,.T.);
#153=FACE_BOUND('',#125,.T.);
#154=FACE_BOUND('',#126,.T.);
#155=PLANE('',#187);
#156=PLANE('',#192);
#157=PLANE('',#198);
#158=PLANE('',#204);
#159=PLANE('',#210);
#160=ADVANCED_FACE('',(#127,#128),#155,.T.);
#161=ADVANCED_FACE('',(#129,#130),#24,.F.);
#162=ADVANCED_FACE('',(#131,#132),#156,.T.);
#163=ADVANCED_FACE('',(#133,#134),#25,.T.);
#164=ADVANCED_FACE('',(#135,#136),#20,.F.);
#165=ADVANCED_FACE('',(#137,#138),#157,.T.);
#166=ADVANCED_FACE('',(#139,#140),#21,.T.);
#167=ADVANCED_FACE('',(#141,#142),#26,.T.);
#168=ADVANCED_FACE('',(#143,#144),#158,.T.);
#169=ADVANCED_FACE('',(#145,#146),#27,.T.);
#170=ADVANCED_FACE('',(#147,#148),#22,.F.);
#171=ADVANCED_FACE('',(#149,#150),#159,.F.);
#172=ADVANCED_FACE('',(#151,#152),#23,.F.);
#173=ADVANCED_FACE('',(#153,#154),#28,.F.);
#174=CLOSED_SHELL('',(#160,#161,#162,#163,#164,#165,#166,#167,#168,#169,
#170,#171,#172,#173));
#175=STYLED_ITEM('',(#176),#183);
#176=PRESENTATION_STYLE_ASSIGNMENT((#177));
#177=SURFACE_STYLE_USAGE(.BOTH.,#178);
#178=SURFACE_SIDE_STYLE('',(#179));
#179=SURFACE_STYLE_FILL_AREA(#180);
#180=FILL_AREA_STYLE('',(#181));
#181=FILL_AREA_STYLE_COLOUR('',#182);
#182=COLOUR_RGB('',0.18823529779911,0.176470592617989,0.176470592617989);
#183=MANIFOLD_SOLID_BREP(
'AGRU_70197221671_Poly-Flo Dog Bone_with transition to single tube_PE 
100-RC black_225/160  SDR17/11 (architecture400)',#174);
#184=SHAPE_DEFINITION_REPRESENTATION(#322,#185);
#185=SHAPE_REPRESENTATION(
'AGRU_70197221671_Poly-Flo Dog Bone_with transition to single tube_PE 
100-RC black_225/160  SDR17/11 (architecture400)',(#186),#317);
#186=AXIS2_PLACEMENT_3D('',#273,#215,#216);
#187=AXIS2_PLACEMENT_3D('',#274,#217,#218);
#188=AXIS2_PLACEMENT_3D('',#275,#219,#220);
#189=AXIS2_PLACEMENT_3D('',#277,#221,#222);
#190=AXIS2_PLACEMENT_3D('',#279,#223,#224);
#191=AXIS2_PLACEMENT_3D('',#280,#225,#226);
#192=AXIS2_PLACEMENT_3D('',#282,#227,#228);
#193=AXIS2_PLACEMENT_3D('',#283,#229,#230);
#194=AXIS2_PLACEMENT_3D('',#285,#231,#232);
#195=AXIS2_PLACEMENT_3D('',#286,#233,#234);
#196=AXIS2_PLACEMENT_3D('',#288,#235,#236);
#197=AXIS2_PLACEMENT_3D('',#289,#237,#238);
#198=AXIS2_PLACEMENT_3D('',#291,#239,#240);
#199=AXIS2_PLACEMENT_3D('',#292,#241,#242);
#200=AXIS2_PLACEMENT_3D('',#294,#243,#244);
#201=AXIS2_PLACEMENT_3D('',#295,#245,#246);
#202=AXIS2_PLACEMENT_3D('',#297,#247,#248);
#203=AXIS2_PLACEMENT_3D('',#298,#249,#250);
#204=AXIS2_PLACEMENT_3D('',#300,#251,#252);
#205=AXIS2_PLACEMENT_3D('',#301,#253,#254);
#206=AXIS2_PLACEMENT_3D('',#303,#255,#256);
#207=AXIS2_PLACEMENT_3D('',#304,#257,#258);
#208=AXIS2_PLACEMENT_3D('',#306,#259,#260);
#209=AXIS2_PLACEMENT_3D('',#307,#261,#262);
#210=AXIS2_PLACEMENT_3D('',#309,#263,#264);
#211=AXIS2_PLACEMENT_3D('',#310,#265,#266);
#212=AXIS2_PLACEMENT_3D('',#312,#267,#268);
#213=AXIS2_PLACEMENT_3D('',#313,#269,#270);
#214=AXIS2_PLACEMENT_3D('',#315,#271,#272);
#215=DIRECTION('',(0.,0.,1.));
#216=DIRECTION('',(1.,0.,0.));
#217=DIRECTION('',(-1.,0.,0.));
#218=DIRECTION('',(0.,0.,1.));
#219=DIRECTION('',(1.,0.,0.));
#220=DIRECTION('',(0.,0.,-1.));
#221=DIRECTION('',(1.,0.,0.));
#222=DIRECTION('',(0.,0.,-1.));
#223=DIRECTION('',(1.,0.,0.));
#224=DIRECTION('',(0.,0.,-1.));
#225=DIRECTION('',(1.,0.,0.));
#226=DIRECTION('',(0.,0.,-1.));
#227=DIRECTION('',(1.,0.,0.));
#228=DIRECTION('',(0.,0.,-1.));
#229=DIRECTION('',(1.,0.,0.));
#230=DIRECTION('',(0.,0.,-1.));
#231=DIRECTION('',(1.,0.,0.));
#232=DIRECTION('',(0.,0.,-1.));
#233=DIRECTION('',(1.,0.,0.));
#234=DIRECTION('',(0.,0.,-1.));
#235=DIRECTION('',(1.,0.,0.));
#236=DIRECTION('',(0.,0.,-1.));
#237=DIRECTION('',(1.,0.,0.));
#238=DIRECTION('',(0.,0.,-1.));
#239=DIRECTION('',(1.,0.,0.));
#240=DIRECTION('',(0.,0.,-1.));
#241=DIRECTION('',(1.,0.,0.));
#242=DIRECTION('',(0.,0.,-1.));
#243=DIRECTION('',(1.,0.,0.));
#244=DIRECTION('',(0.,0.,-1.));
#245=DIRECTION('',(1.,0.,0.));
#246=DIRECTION('',(0.,0.,-1.));
#247=DIRECTION('',(1.,0.,0.));
#248=DIRECTION('',(0.,0.,-1.));
#249=DIRECTION('',(1.,0.,0.));
#250=DIRECTION('',(0.,0.,-1.));
#251=DIRECTION('',(-1.,0.,0.));
#252=DIRECTION('',(0.,0.,1.));
#253=DIRECTION('',(1.,0.,0.));
#254=DIRECTION('',(0.,0.,-1.));
#255=DIRECTION('',(1.,0.,0.));
#256=DIRECTION('',(0.,0.,-1.));
#257=DIRECTION('',(1.,0.,0.));
#258=DIRECTION('',(0.,0.,-1.));
#259=DIRECTION('',(1.,0.,0.));
#260=DIRECTION('',(0.,0.,-1.));
#261=DIRECTION('',(1.,0.,0.));
#262=DIRECTION('',(0.,0.,-1.));
#263=DIRECTION('',(1.,0.,0.));
#264=DIRECTION('',(0.,0.,-1.));
#265=DIRECTION('',(1.,0.,0.));
#266=DIRECTION('',(0.,0.,-1.));
#267=DIRECTION('',(1.,0.,0.));
#268=DIRECTION('',(0.,0.,-1.));
#269=DIRECTION('',(1.,0.,0.));
#270=DIRECTION('',(0.,0.,-1.));
#271=DIRECTION('',(1.,0.,0.));
#272=DIRECTION('',(0.,0.,-1.));
#273=CARTESIAN_POINT('',(0.,0.,0.));
#274=CARTESIAN_POINT('',(0.,80.,0.));
#275=CARTESIAN_POINT('',(0.,0.,0.));
#276=CARTESIAN_POINT('',(0.,0.,-65.4));
#277=CARTESIAN_POINT('',(0.,0.,0.));
#278=CARTESIAN_POINT('',(0.,0.,-80.));
#279=CARTESIAN_POINT('',(115.,0.,0.));
#280=CARTESIAN_POINT('',(115.,0.,0.));
#281=CARTESIAN_POINT('',(115.,0.,-65.4));
#282=CARTESIAN_POINT('',(115.,65.4,0.));
#283=CARTESIAN_POINT('',(115.,0.,0.));
#284=CARTESIAN_POINT('',(115.,0.,-80.));
#285=CARTESIAN_POINT('',(115.,0.,0.));
#286=CARTESIAN_POINT('',(64.8,0.,0.));
#287=CARTESIAN_POINT('',(64.8,0.,-80.));
#288=CARTESIAN_POINT('',(64.8,0.,0.));
#289=CARTESIAN_POINT('',(60.,0.,0.));
#290=CARTESIAN_POINT('',(60.,0.,-84.8));
#291=CARTESIAN_POINT('',(60.,84.8,0.));
#292=CARTESIAN_POINT('',(60.,0.,0.));
#293=CARTESIAN_POINT('',(60.,0.,-108.));
#294=CARTESIAN_POINT('',(55.5,0.,0.));
#295=CARTESIAN_POINT('',(55.5,0.,0.));
#296=CARTESIAN_POINT('',(55.5,0.,-112.5));
#297=CARTESIAN_POINT('',(115.,0.,0.));
#298=CARTESIAN_POINT('',(9.99999999999999,0.,0.));
#299=CARTESIAN_POINT('',(9.99999999999999,0.,-112.5));
#300=CARTESIAN_POINT('',(10.,112.5,0.));
#301=CARTESIAN_POINT('',(10.,0.,0.));
#302=CARTESIAN_POINT('',(10.,0.,-99.1));
#303=CARTESIAN_POINT('',(115.,0.,0.));
#304=CARTESIAN_POINT('',(33.,0.,0.));
#305=CARTESIAN_POINT('',(33.,0.,-80.));
#306=CARTESIAN_POINT('',(33.,0.,0.));
#307=CARTESIAN_POINT('',(37.5,0.,0.));
#308=CARTESIAN_POINT('',(37.5,0.,-84.5));
#309=CARTESIAN_POINT('',(37.5,84.5,0.));
#310=CARTESIAN_POINT('',(37.5,0.,0.));
#311=CARTESIAN_POINT('',(37.5,0.,-94.6));
#312=CARTESIAN_POINT('',(33.,0.,0.));
#313=CARTESIAN_POINT('',(33.,0.,0.));
#314=CARTESIAN_POINT('',(33.,0.,-99.1));
#315=CARTESIAN_POINT('',(50.,0.,0.));
#316=MECHANICAL_DESIGN_GEOMETRIC_PRESENTATION_REPRESENTATION('',(#175),
#317);
#317=(
GEOMETRIC_REPRESENTATION_CONTEXT(3)
GLOBAL_UNCERTAINTY_ASSIGNED_CONTEXT((#318))
GLOBAL_UNIT_ASSIGNED_CONTEXT((#321,#320,#319))
REPRESENTATION_CONTEXT(
'AGRU_70197221671_Poly-Flo Dog Bone_with transition to single tube_PE 
100-RC black_225/160  SDR17/11 (architecture400)',
'TOP_LEVEL_ASSEMBLY_PART')
);
#318=UNCERTAINTY_MEASURE_WITH_UNIT(LENGTH_MEASURE(0.005),#321,
'DISTANCE_ACCURACY_VALUE','Maximum Tolerance applied to model');
#319=(
NAMED_UNIT(*)
SI_UNIT($,.STERADIAN.)
SOLID_ANGLE_UNIT()
);
#320=(
NAMED_UNIT(*)
PLANE_ANGLE_UNIT()
SI_UNIT($,.RADIAN.)
);
#321=(
LENGTH_UNIT()
NAMED_UNIT(*)
SI_UNIT(.MILLI.,.METRE.)
);
#322=PRODUCT_DEFINITION_SHAPE('','',#323);
#323=PRODUCT_DEFINITION('','',#325,#324);
#324=DESIGN_CONTEXT('',#331,'design');
#325=PRODUCT_DEFINITION_FORMATION_WITH_SPECIFIED_SOURCE('','',#327,
 .NOT_KNOWN.);
#326=PRODUCT_RELATED_PRODUCT_CATEGORY('','',(#327));
#327=PRODUCT(
'AGRU_70197221671_Poly-Flo Dog Bone_with transition to single tube_PE 
100-RC black_225/160  SDR17/11 (architecture400)',
'AGRU_70197221671_Poly-Flo Dog Bone_with transition to single tube_PE 
100-RC black_225/160  SDR17/11 (architecture400)',
'AGRU_70197221671_Poly-Flo Dog Bone_with transition to single tube_PE 
100-RC black_225/160  SDR17/11 (architecture400)',(#329));
#328=PRODUCT_CATEGORY('','');
#329=MECHANICAL_CONTEXT('',#331,'mechanical');
#330=APPLICATION_PROTOCOL_DEFINITION('international standard',
'config_control_design',2010,#331);
#331=APPLICATION_CONTEXT(
'configuration controlled 3D designs of mechanical parts and assemblie
s');
ENDSEC;
END-ISO-10303-21;
