ISO-10303-21;
HEADER;
/* Generated by software containing ST-Developer
 * from STEP Tools, Inc. (www.steptools.com) 
 */

FILE_DESCRIPTION(
/* description */ ('PVC Reducer Short, Ø32-Ø25, PN16'),
/* implementation_level */ '2;1');

FILE_NAME(
/* name */ 
'RB90U-032-025',
/* time_stamp */ '2022-05-02T11:45:06+02:00',
/* author */ ('COAB Solutions'),
/* organization */ ('GPA Flowsystem'),
/* preprocessor_version */ 'ST-DEVELOPER v18.1',
/* originating_system */ 'www.coabsolutions.com',
/* authorisation */ '');

FILE_SCHEMA (('AUTOMOTIVE_DESIGN { 1 0 10303 214 3 1 1 }'));
ENDSEC;

DATA;
#10=MECHANICAL_DESIGN_GEOMETRIC_PRESENTATION_REPRESENTATION('',(#13),#273);
#11=SHAPE_REPRESENTATION_RELATIONSHIP('SRR','None',#280,#12);
#12=ADVANCED_BREP_SHAPE_REPRESENTATION('',(#14),#272);
#13=STYLED_ITEM('',(#289),#14);
#14=MANIFOLD_SOLID_BREP('Solid1',#140);
#15=CONICAL_SURFACE('',#181,13.3125,1.00887476453808);
#16=FACE_BOUND('',#45,.T.);
#17=FACE_BOUND('',#48,.T.);
#18=FACE_BOUND('',#51,.T.);
#19=PLANE('',#168);
#20=PLANE('',#173);
#21=PLANE('',#177);
#22=LINE('',#243,#26);
#23=LINE('',#259,#27);
#24=LINE('',#266,#28);
#25=LINE('',#269,#29);
#26=VECTOR('',#196,16.);
#27=VECTOR('',#217,12.5);
#28=VECTOR('',#226,11.625);
#29=VECTOR('',#231,13.3125);
#30=CYLINDRICAL_SURFACE('',#165,16.);
#31=CYLINDRICAL_SURFACE('',#175,12.5);
#32=CYLINDRICAL_SURFACE('',#179,11.625);
#33=FACE_OUTER_BOUND('',#42,.T.);
#34=FACE_OUTER_BOUND('',#43,.T.);
#35=FACE_OUTER_BOUND('',#44,.T.);
#36=FACE_OUTER_BOUND('',#46,.T.);
#37=FACE_OUTER_BOUND('',#47,.T.);
#38=FACE_OUTER_BOUND('',#49,.T.);
#39=FACE_OUTER_BOUND('',#50,.T.);
#40=FACE_OUTER_BOUND('',#52,.T.);
#41=FACE_OUTER_BOUND('',#53,.T.);
#42=EDGE_LOOP('',(#95,#96,#97,#98,#99));
#43=EDGE_LOOP('',(#100,#101,#102,#103,#104,#105));
#44=EDGE_LOOP('',(#106));
#45=EDGE_LOOP('',(#107));
#46=EDGE_LOOP('',(#108,#109,#110,#111,#112));
#47=EDGE_LOOP('',(#113));
#48=EDGE_LOOP('',(#114));
#49=EDGE_LOOP('',(#115,#116,#117,#118));
#50=EDGE_LOOP('',(#119));
#51=EDGE_LOOP('',(#120));
#52=EDGE_LOOP('',(#121,#122,#123,#124));
#53=EDGE_LOOP('',(#125,#126,#127,#128));
#54=CIRCLE('',#161,15.5);
#55=CIRCLE('',#162,0.5);
#56=CIRCLE('',#163,16.);
#57=CIRCLE('',#164,16.);
#58=CIRCLE('',#166,16.);
#59=CIRCLE('',#167,16.);
#60=CIRCLE('',#169,12.5);
#61=CIRCLE('',#171,0.5);
#62=CIRCLE('',#172,15.5);
#63=CIRCLE('',#174,15.);
#64=CIRCLE('',#176,12.5);
#65=CIRCLE('',#178,11.625);
#66=CIRCLE('',#180,11.625);
#67=VERTEX_POINT('',#234);
#68=VERTEX_POINT('',#236);
#69=VERTEX_POINT('',#238);
#70=VERTEX_POINT('',#242);
#71=VERTEX_POINT('',#244);
#72=VERTEX_POINT('',#248);
#73=VERTEX_POINT('',#251);
#74=VERTEX_POINT('',#255);
#75=VERTEX_POINT('',#258);
#76=VERTEX_POINT('',#262);
#77=VERTEX_POINT('',#265);
#78=EDGE_CURVE('',#67,#67,#54,.T.);
#79=EDGE_CURVE('',#67,#68,#55,.T.);
#80=EDGE_CURVE('',#68,#69,#56,.T.);
#81=EDGE_CURVE('',#69,#68,#57,.T.);
#82=EDGE_CURVE('',#69,#70,#22,.T.);
#83=EDGE_CURVE('',#71,#70,#58,.T.);
#84=EDGE_CURVE('',#70,#71,#59,.T.);
#85=EDGE_CURVE('',#72,#72,#60,.T.);
#86=EDGE_CURVE('',#71,#73,#61,.T.);
#87=EDGE_CURVE('',#73,#73,#62,.T.);
#88=EDGE_CURVE('',#74,#74,#63,.T.);
#89=EDGE_CURVE('',#72,#75,#23,.T.);
#90=EDGE_CURVE('',#75,#75,#64,.T.);
#91=EDGE_CURVE('',#76,#76,#65,.T.);
#92=EDGE_CURVE('',#76,#77,#24,.T.);
#93=EDGE_CURVE('',#77,#77,#66,.T.);
#94=EDGE_CURVE('',#77,#74,#25,.T.);
#95=ORIENTED_EDGE('',*,*,#78,.T.);
#96=ORIENTED_EDGE('',*,*,#79,.T.);
#97=ORIENTED_EDGE('',*,*,#80,.T.);
#98=ORIENTED_EDGE('',*,*,#81,.T.);
#99=ORIENTED_EDGE('',*,*,#79,.F.);
#100=ORIENTED_EDGE('',*,*,#81,.F.);
#101=ORIENTED_EDGE('',*,*,#82,.T.);
#102=ORIENTED_EDGE('',*,*,#83,.F.);
#103=ORIENTED_EDGE('',*,*,#84,.F.);
#104=ORIENTED_EDGE('',*,*,#82,.F.);
#105=ORIENTED_EDGE('',*,*,#80,.F.);
#106=ORIENTED_EDGE('',*,*,#78,.F.);
#107=ORIENTED_EDGE('',*,*,#85,.F.);
#108=ORIENTED_EDGE('',*,*,#83,.T.);
#109=ORIENTED_EDGE('',*,*,#84,.T.);
#110=ORIENTED_EDGE('',*,*,#86,.T.);
#111=ORIENTED_EDGE('',*,*,#87,.T.);
#112=ORIENTED_EDGE('',*,*,#86,.F.);
#113=ORIENTED_EDGE('',*,*,#87,.F.);
#114=ORIENTED_EDGE('',*,*,#88,.T.);
#115=ORIENTED_EDGE('',*,*,#85,.T.);
#116=ORIENTED_EDGE('',*,*,#89,.T.);
#117=ORIENTED_EDGE('',*,*,#90,.F.);
#118=ORIENTED_EDGE('',*,*,#89,.F.);
#119=ORIENTED_EDGE('',*,*,#90,.T.);
#120=ORIENTED_EDGE('',*,*,#91,.F.);
#121=ORIENTED_EDGE('',*,*,#91,.T.);
#122=ORIENTED_EDGE('',*,*,#92,.T.);
#123=ORIENTED_EDGE('',*,*,#93,.F.);
#124=ORIENTED_EDGE('',*,*,#92,.F.);
#125=ORIENTED_EDGE('',*,*,#93,.T.);
#126=ORIENTED_EDGE('',*,*,#94,.T.);
#127=ORIENTED_EDGE('',*,*,#88,.F.);
#128=ORIENTED_EDGE('',*,*,#94,.F.);
#129=TOROIDAL_SURFACE('',#160,15.5,0.5);
#130=TOROIDAL_SURFACE('',#170,15.5,0.5);
#131=ADVANCED_FACE('',(#33),#129,.T.);
#132=ADVANCED_FACE('',(#34),#30,.T.);
#133=ADVANCED_FACE('',(#35,#16),#19,.T.);
#134=ADVANCED_FACE('',(#36),#130,.T.);
#135=ADVANCED_FACE('',(#37,#17),#20,.T.);
#136=ADVANCED_FACE('',(#38),#31,.F.);
#137=ADVANCED_FACE('',(#39,#18),#21,.T.);
#138=ADVANCED_FACE('',(#40),#32,.F.);
#139=ADVANCED_FACE('',(#41),#15,.F.);
#140=CLOSED_SHELL('',(#131,#132,#133,#134,#135,#136,#137,#138,#139));
#141=DERIVED_UNIT_ELEMENT(#143,1.);
#142=DERIVED_UNIT_ELEMENT(#275,-3.);
#143=(
MASS_UNIT()
NAMED_UNIT(*)
SI_UNIT($,.GRAM.)
);
#144=DERIVED_UNIT((#141,#142));
#145=MEASURE_REPRESENTATION_ITEM('density measure',
POSITIVE_RATIO_MEASURE(1.),#144);
#146=PROPERTY_DEFINITION_REPRESENTATION(#151,#148);
#147=PROPERTY_DEFINITION_REPRESENTATION(#152,#149);
#148=REPRESENTATION('material name',(#150),#272);
#149=REPRESENTATION('density',(#145),#272);
#150=DESCRIPTIVE_REPRESENTATION_ITEM('PVC','PVC');
#151=PROPERTY_DEFINITION('material property','material name',#282);
#152=PROPERTY_DEFINITION('material property','density of part',#282);
#153=DATE_TIME_ROLE('creation_date');
#154=APPLIED_DATE_AND_TIME_ASSIGNMENT(#155,#153,(#282));
#155=DATE_AND_TIME(#156,#157);
#156=CALENDAR_DATE(2021,5,8);
#157=LOCAL_TIME(0,0,0.,#158);
#158=COORDINATED_UNIVERSAL_TIME_OFFSET(0,0,.BEHIND.);
#159=AXIS2_PLACEMENT_3D('placement',#232,#182,#183);
#160=AXIS2_PLACEMENT_3D('',#233,#184,#185);
#161=AXIS2_PLACEMENT_3D('',#235,#186,#187);
#162=AXIS2_PLACEMENT_3D('',#237,#188,#189);
#163=AXIS2_PLACEMENT_3D('',#239,#190,#191);
#164=AXIS2_PLACEMENT_3D('',#240,#192,#193);
#165=AXIS2_PLACEMENT_3D('',#241,#194,#195);
#166=AXIS2_PLACEMENT_3D('',#245,#197,#198);
#167=AXIS2_PLACEMENT_3D('',#246,#199,#200);
#168=AXIS2_PLACEMENT_3D('',#247,#201,#202);
#169=AXIS2_PLACEMENT_3D('',#249,#203,#204);
#170=AXIS2_PLACEMENT_3D('',#250,#205,#206);
#171=AXIS2_PLACEMENT_3D('',#252,#207,#208);
#172=AXIS2_PLACEMENT_3D('',#253,#209,#210);
#173=AXIS2_PLACEMENT_3D('',#254,#211,#212);
#174=AXIS2_PLACEMENT_3D('',#256,#213,#214);
#175=AXIS2_PLACEMENT_3D('',#257,#215,#216);
#176=AXIS2_PLACEMENT_3D('',#260,#218,#219);
#177=AXIS2_PLACEMENT_3D('',#261,#220,#221);
#178=AXIS2_PLACEMENT_3D('',#263,#222,#223);
#179=AXIS2_PLACEMENT_3D('',#264,#224,#225);
#180=AXIS2_PLACEMENT_3D('',#267,#227,#228);
#181=AXIS2_PLACEMENT_3D('',#268,#229,#230);
#182=DIRECTION('axis',(0.,0.,1.));
#183=DIRECTION('refdir',(1.,0.,0.));
#184=DIRECTION('center_axis',(1.,1.22464679914735E-16,0.));
#185=DIRECTION('ref_axis',(0.,0.,-1.));
#186=DIRECTION('center_axis',(-1.,-1.22464679914735E-16,0.));
#187=DIRECTION('ref_axis',(1.22464679914735E-16,-1.,1.83697019872103E-16));
#188=DIRECTION('center_axis',(1.22464679914735E-16,-1.,-1.22464679914735E-16));
#189=DIRECTION('ref_axis',(0.,-1.22464679914735E-16,1.));
#190=DIRECTION('center_axis',(1.,1.22464679914735E-16,0.));
#191=DIRECTION('ref_axis',(1.21430643318376E-16,-1.,1.83697019872103E-16));
#192=DIRECTION('center_axis',(1.,1.22464679914735E-16,0.));
#193=DIRECTION('ref_axis',(1.21430643318376E-16,-1.,1.83697019872103E-16));
#194=DIRECTION('center_axis',(1.,1.22464679914735E-16,0.));
#195=DIRECTION('ref_axis',(0.,1.,0.));
#196=DIRECTION('',(-1.,-1.22464679914735E-16,0.));
#197=DIRECTION('center_axis',(-1.,-1.22464679914735E-16,0.));
#198=DIRECTION('ref_axis',(1.21430643318376E-16,-1.,1.83697019872103E-16));
#199=DIRECTION('center_axis',(-1.,-1.22464679914735E-16,0.));
#200=DIRECTION('ref_axis',(1.21430643318376E-16,-1.,1.83697019872103E-16));
#201=DIRECTION('center_axis',(1.,1.22464679914735E-16,0.));
#202=DIRECTION('ref_axis',(0.,0.,-1.));
#203=DIRECTION('center_axis',(1.,1.22464679914735E-16,0.));
#204=DIRECTION('ref_axis',(0.,0.,-1.));
#205=DIRECTION('center_axis',(1.,1.22464679914735E-16,0.));
#206=DIRECTION('ref_axis',(0.,0.,-1.));
#207=DIRECTION('center_axis',(1.22464679914735E-16,-1.,-1.22464679914735E-16));
#208=DIRECTION('ref_axis',(0.,-1.22464679914735E-16,1.));
#209=DIRECTION('center_axis',(1.,1.22464679914735E-16,0.));
#210=DIRECTION('ref_axis',(1.22464679914735E-16,-1.,1.83697019872103E-16));
#211=DIRECTION('center_axis',(-1.,-1.22464679914735E-16,0.));
#212=DIRECTION('ref_axis',(0.,0.,1.));
#213=DIRECTION('center_axis',(1.,1.22464679914735E-16,0.));
#214=DIRECTION('ref_axis',(0.,0.,-1.));
#215=DIRECTION('center_axis',(1.,1.22464679914735E-16,0.));
#216=DIRECTION('ref_axis',(0.,1.,0.));
#217=DIRECTION('',(-1.,-1.22464679914735E-16,0.));
#218=DIRECTION('center_axis',(1.,1.22464679914735E-16,0.));
#219=DIRECTION('ref_axis',(0.,0.,-1.));
#220=DIRECTION('center_axis',(1.,1.22464679914735E-16,0.));
#221=DIRECTION('ref_axis',(0.,0.,-1.));
#222=DIRECTION('center_axis',(1.,1.22464679914735E-16,0.));
#223=DIRECTION('ref_axis',(0.,0.,-1.));
#224=DIRECTION('center_axis',(1.,1.22464679914735E-16,0.));
#225=DIRECTION('ref_axis',(0.,1.,0.));
#226=DIRECTION('',(-1.,-1.22464679914735E-16,0.));
#227=DIRECTION('center_axis',(1.,1.22464679914735E-16,0.));
#228=DIRECTION('ref_axis',(0.,0.,-1.));
#229=DIRECTION('center_axis',(-1.,-1.22464679914735E-16,0.));
#230=DIRECTION('ref_axis',(0.,1.,0.));
#231=DIRECTION('',(-0.532813269686139,-0.846232840089751,-1.03633633894929E-16));
#232=CARTESIAN_POINT('',(0.,0.,0.));
#233=CARTESIAN_POINT('Origin',(-0.500000000000003,-6.1232339957368E-17,
0.));
#234=CARTESIAN_POINT('',(-2.28983498828939E-15,-1.8982025386784E-15,15.5));
#235=CARTESIAN_POINT('Origin',(-2.28983498828939E-15,-3.00445071324409E-31,
0.));
#236=CARTESIAN_POINT('',(-0.500000000000003,-2.02066721859313E-15,16.));
#237=CARTESIAN_POINT('Origin',(-0.500000000000003,-1.95943487863577E-15,
15.5));
#238=CARTESIAN_POINT('',(-0.5,-16.,-1.95943487863577E-15));
#239=CARTESIAN_POINT('Origin',(-0.500000000000003,-6.1232339957368E-17,
0.));
#240=CARTESIAN_POINT('Origin',(-0.500000000000003,-6.1232339957368E-17,
0.));
#241=CARTESIAN_POINT('Origin',(-11.,-1.34711147906209E-15,0.));
#242=CARTESIAN_POINT('',(-21.5,-16.,-1.95943487863577E-15));
#243=CARTESIAN_POINT('',(-11.,-16.,-1.95943487863577E-15));
#244=CARTESIAN_POINT('',(-21.5,-4.59242549680258E-15,16.));
#245=CARTESIAN_POINT('Origin',(-21.5,-2.63299061816681E-15,0.));
#246=CARTESIAN_POINT('Origin',(-21.5,-2.63299061816681E-15,0.));
#247=CARTESIAN_POINT('Origin',(-3.82702124733547E-15,12.5,0.));
#248=CARTESIAN_POINT('',(-3.33066907387547E-15,-12.5,-1.53080849893419E-15));
#249=CARTESIAN_POINT('Origin',(-4.44089209850063E-15,-4.93038065763132E-31,
0.));
#250=CARTESIAN_POINT('Origin',(-21.5,-2.63299061816681E-15,0.));
#251=CARTESIAN_POINT('',(-22.,-4.59242549680258E-15,15.5));
#252=CARTESIAN_POINT('Origin',(-21.5,-4.53119315684521E-15,15.5));
#253=CARTESIAN_POINT('Origin',(-22.,-2.69422295812418E-15,0.));
#254=CARTESIAN_POINT('Origin',(-22.,16.,0.));
#255=CARTESIAN_POINT('',(-22.,-15.,-1.83697019872103E-15));
#256=CARTESIAN_POINT('Origin',(-22.,-2.69422295812418E-15,0.));
#257=CARTESIAN_POINT('Origin',(-9.5,-1.16341445918999E-15,0.));
#258=CARTESIAN_POINT('',(-19.,-12.5,-1.53080849893419E-15));
#259=CARTESIAN_POINT('',(-9.5,-12.5,-1.53080849893419E-15));
#260=CARTESIAN_POINT('Origin',(-19.,-2.32682891837997E-15,0.));
#261=CARTESIAN_POINT('Origin',(-19.,11.625,0.));
#262=CARTESIAN_POINT('',(-19.,-11.625,-1.4236519040088E-15));
#263=CARTESIAN_POINT('Origin',(-19.,-2.32682891837997E-15,0.));
#264=CARTESIAN_POINT('Origin',(-19.4375,-2.38040721584267E-15,0.));
#265=CARTESIAN_POINT('',(-19.875,-11.625,-1.4236519040088E-15));
#266=CARTESIAN_POINT('',(-19.4375,-11.625,-1.4236519040088E-15));
#267=CARTESIAN_POINT('Origin',(-19.875,-2.43398551330537E-15,0.));
#268=CARTESIAN_POINT('Origin',(-20.9375,-2.56410423571477E-15,0.));
#269=CARTESIAN_POINT('',(-20.9375,-13.3125,-1.63031105136491E-15));
#270=UNCERTAINTY_MEASURE_WITH_UNIT(LENGTH_MEASURE(0.01),#274,
'DISTANCE_ACCURACY_VALUE',
'Maximum model space distance between geometric entities at asserted c
onnectivities');
#271=UNCERTAINTY_MEASURE_WITH_UNIT(LENGTH_MEASURE(0.01),#274,
'DISTANCE_ACCURACY_VALUE',
'Maximum model space distance between geometric entities at asserted c
onnectivities');
#272=(
GEOMETRIC_REPRESENTATION_CONTEXT(3)
GLOBAL_UNCERTAINTY_ASSIGNED_CONTEXT((#270))
GLOBAL_UNIT_ASSIGNED_CONTEXT((#274,#276,#277))
REPRESENTATION_CONTEXT('','3D')
);
#273=(
GEOMETRIC_REPRESENTATION_CONTEXT(3)
GLOBAL_UNCERTAINTY_ASSIGNED_CONTEXT((#271))
GLOBAL_UNIT_ASSIGNED_CONTEXT((#274,#276,#277))
REPRESENTATION_CONTEXT('','3D')
);
#274=(
LENGTH_UNIT()
NAMED_UNIT(*)
SI_UNIT(.MILLI.,.METRE.)
);
#275=(
LENGTH_UNIT()
NAMED_UNIT(*)
SI_UNIT(.CENTI.,.METRE.)
);
#276=(
NAMED_UNIT(*)
PLANE_ANGLE_UNIT()
SI_UNIT($,.RADIAN.)
);
#277=(
NAMED_UNIT(*)
SI_UNIT($,.STERADIAN.)
SOLID_ANGLE_UNIT()
);
#278=SHAPE_DEFINITION_REPRESENTATION(#279,#280);
#279=PRODUCT_DEFINITION_SHAPE('',$,#282);
#280=SHAPE_REPRESENTATION('',(#159),#272);
#281=PRODUCT_DEFINITION_CONTEXT('part definition',#286,'design');
#282=PRODUCT_DEFINITION('RB90U-032-025','RB90U-032-025',#283,#281);
#283=PRODUCT_DEFINITION_FORMATION('0',$,#288);
#284=PRODUCT_RELATED_PRODUCT_CATEGORY('RB90U-032-025','RB90U-032-025',(#288));
#285=APPLICATION_PROTOCOL_DEFINITION('international standard',
'automotive_design',2009,#286);
#286=APPLICATION_CONTEXT(
'Core Data for Automotive Mechanical Design Process');
#287=PRODUCT_CONTEXT('part definition',#286,'mechanical');
#288=PRODUCT('RB90U-032-025','RB90U-032-025',
'PVC Reducer Short, \X\D832-\X\D825, PN16',(#287));
#289=PRESENTATION_STYLE_ASSIGNMENT((#290));
#290=SURFACE_STYLE_USAGE(.BOTH.,#293);
#291=SURFACE_STYLE_RENDERING_WITH_PROPERTIES($,#297,(#292));
#292=SURFACE_STYLE_TRANSPARENT(0.);
#293=SURFACE_SIDE_STYLE('',(#294,#291));
#294=SURFACE_STYLE_FILL_AREA(#295);
#295=FILL_AREA_STYLE('',(#296));
#296=FILL_AREA_STYLE_COLOUR('',#297);
#297=COLOUR_RGB('',0.258823529411765,0.298039215686275,0.337254901960784);
ENDSEC;
END-ISO-10303-21;
