ISO-10303-21;
HEADER;
/* Generated by software containing ST-Developer
 * from STEP Tools, Inc. (www.steptools.com) 
 */

FILE_DESCRIPTION(
/* description */ ('PVC Bend 15°, Ø140, PN12,5'),
/* implementation_level */ '2;1');

FILE_NAME(
/* name */ 
'KLIIV140',
/* time_stamp */ '2022-05-11T16:00:49+02:00',
/* author */ ('COAB Solutions'),
/* organization */ ('GPA Flowsystem'),
/* preprocessor_version */ 'ST-DEVELOPER v18.1',
/* originating_system */ 'www.coabsolutions.com',
/* authorisation */ '');

FILE_SCHEMA (('AUTOMOTIVE_DESIGN { 1 0 10303 214 3 1 1 }'));
ENDSEC;

DATA;
#10=MECHANICAL_DESIGN_GEOMETRIC_PRESENTATION_REPRESENTATION('',(#13),#407);
#11=SHAPE_REPRESENTATION_RELATIONSHIP('SRR','None',#414,#12);
#12=ADVANCED_BREP_SHAPE_REPRESENTATION('',(#14),#406);
#13=STYLED_ITEM('',(#423),#14);
#14=MANIFOLD_SOLID_BREP('Solid2',#179);
#15=FACE_BOUND('',#47,.T.);
#16=FACE_BOUND('',#51,.T.);
#17=FACE_BOUND('',#54,.T.);
#18=FACE_BOUND('',#56,.T.);
#19=PLANE('',#210);
#20=PLANE('',#216);
#21=PLANE('',#221);
#22=PLANE('',#222);
#23=CYLINDRICAL_SURFACE('',#205,70.);
#24=CYLINDRICAL_SURFACE('',#208,79.);
#25=CYLINDRICAL_SURFACE('',#211,70.);
#26=CYLINDRICAL_SURFACE('',#214,79.);
#27=TOROIDAL_SURFACE('',#201,455.745246763507,70.);
#28=TOROIDAL_SURFACE('',#217,455.745246763507,61.);
#29=FACE_OUTER_BOUND('',#41,.T.);
#30=FACE_OUTER_BOUND('',#42,.T.);
#31=FACE_OUTER_BOUND('',#43,.T.);
#32=FACE_OUTER_BOUND('',#44,.T.);
#33=FACE_OUTER_BOUND('',#45,.T.);
#34=FACE_OUTER_BOUND('',#46,.T.);
#35=FACE_OUTER_BOUND('',#48,.T.);
#36=FACE_OUTER_BOUND('',#49,.T.);
#37=FACE_OUTER_BOUND('',#50,.T.);
#38=FACE_OUTER_BOUND('',#52,.T.);
#39=FACE_OUTER_BOUND('',#53,.T.);
#40=FACE_OUTER_BOUND('',#55,.T.);
#41=EDGE_LOOP('',(#121,#122,#123,#124,#125));
#42=EDGE_LOOP('',(#126,#127,#128,#129,#130,#131));
#43=EDGE_LOOP('',(#132,#133,#134,#135,#136));
#44=EDGE_LOOP('',(#137,#138,#139,#140));
#45=EDGE_LOOP('',(#141,#142,#143,#144));
#46=EDGE_LOOP('',(#145));
#47=EDGE_LOOP('',(#146));
#48=EDGE_LOOP('',(#147,#148,#149,#150));
#49=EDGE_LOOP('',(#151,#152,#153,#154));
#50=EDGE_LOOP('',(#155));
#51=EDGE_LOOP('',(#156));
#52=EDGE_LOOP('',(#157,#158,#159,#160));
#53=EDGE_LOOP('',(#161));
#54=EDGE_LOOP('',(#162));
#55=EDGE_LOOP('',(#163));
#56=EDGE_LOOP('',(#164));
#57=B_SPLINE_CURVE_WITH_KNOTS('',3,(#286,#287,#288,#289,#290,#291,#292,
#293,#294,#295,#296,#297,#298,#299,#300,#301,#302,#303,#304,#305),
 .UNSPECIFIED.,.F.,.F.,(4,2,2,2,2,2,2,2,2,4),(-44.1178798887905,-42.569545409341,
-41.0217563265353,-38.2850075936115,-35.5473776063862,-32.8101181573203,
-30.0749538843029,-27.3427180492908,-24.6116936849197,-22.0617737065771),
 .UNSPECIFIED.);
#58=B_SPLINE_CURVE_WITH_KNOTS('',3,(#306,#307,#308,#309,#310,#311,#312,
#313,#314,#315,#316,#317,#318,#319,#320,#321,#322,#323,#324,#325),
 .UNSPECIFIED.,.F.,.F.,(4,2,2,2,2,2,2,2,2,4),(-22.0617737065771,-21.8784352943135,
-19.1415548231068,-16.4032897937694,-13.6665068736335,-10.9320683361941,
-8.19919095858602,-5.46674175739238,-2.73386219371946,0.),.UNSPECIFIED.);
#59=B_SPLINE_CURVE_WITH_KNOTS('',3,(#330,#331,#332,#333,#334,#335,#336,
#337,#338,#339,#340,#341,#342,#343,#344,#345,#346,#347,#348,#349),
 .UNSPECIFIED.,.F.,.F.,(4,2,2,2,2,2,2,2,2,4),(-22.0605531969292,-21.7058296678564,
-18.9261474157783,-16.1497450400515,-13.3709144454311,-10.6751274947584,
-8.02489367843294,-5.38385114742925,-2.71822755884583,0.),.UNSPECIFIED.);
#60=B_SPLINE_CURVE_WITH_KNOTS('',3,(#350,#351,#352,#353,#354,#355,#356,
#357,#358,#359,#360,#361,#362,#363,#364,#365,#366,#367,#368,#369),
 .UNSPECIFIED.,.F.,.F.,(4,2,2,2,2,2,2,2,2,4),(-44.1168058033627,-42.4445500043331,
-40.8084249692499,-38.028807672169,-35.2493371860944,-32.4529574287279,
-29.7343169686082,-27.1003225225748,-24.4990399438428,-22.0605531969292),
 .UNSPECIFIED.);
#61=LINE('',#284,#67);
#62=LINE('',#372,#68);
#63=LINE('',#378,#69);
#64=LINE('',#382,#70);
#65=LINE('',#389,#71);
#66=LINE('',#393,#72);
#67=VECTOR('',#229,74.4608064662558);
#68=VECTOR('',#236,74.4608064662558);
#69=VECTOR('',#243,70.);
#70=VECTOR('',#248,79.);
#71=VECTOR('',#257,70.);
#72=VECTOR('',#262,79.);
#73=CIRCLE('',#200,79.);
#74=CIRCLE('',#202,385.745246763507);
#75=CIRCLE('',#204,79.);
#76=CIRCLE('',#206,70.);
#77=CIRCLE('',#207,70.);
#78=CIRCLE('',#209,79.);
#79=CIRCLE('',#212,70.);
#80=CIRCLE('',#213,70.);
#81=CIRCLE('',#215,79.);
#82=CIRCLE('',#218,61.);
#83=CIRCLE('',#219,394.745246763507);
#84=CIRCLE('',#220,61.);
#85=VERTEX_POINT('',#281);
#86=VERTEX_POINT('',#283);
#87=VERTEX_POINT('',#285);
#88=VERTEX_POINT('',#327);
#89=VERTEX_POINT('',#329);
#90=VERTEX_POINT('',#371);
#91=VERTEX_POINT('',#375);
#92=VERTEX_POINT('',#377);
#93=VERTEX_POINT('',#381);
#94=VERTEX_POINT('',#386);
#95=VERTEX_POINT('',#388);
#96=VERTEX_POINT('',#392);
#97=VERTEX_POINT('',#397);
#98=VERTEX_POINT('',#399);
#99=EDGE_CURVE('',#85,#85,#73,.T.);
#100=EDGE_CURVE('',#85,#86,#61,.T.);
#101=EDGE_CURVE('',#87,#86,#57,.T.);
#102=EDGE_CURVE('',#86,#87,#58,.T.);
#103=EDGE_CURVE('',#86,#88,#74,.T.);
#104=EDGE_CURVE('',#88,#89,#59,.T.);
#105=EDGE_CURVE('',#89,#88,#60,.T.);
#106=EDGE_CURVE('',#88,#90,#62,.T.);
#107=EDGE_CURVE('',#90,#90,#75,.T.);
#108=EDGE_CURVE('',#91,#91,#76,.T.);
#109=EDGE_CURVE('',#91,#92,#63,.T.);
#110=EDGE_CURVE('',#92,#92,#77,.T.);
#111=EDGE_CURVE('',#85,#93,#64,.T.);
#112=EDGE_CURVE('',#93,#93,#78,.T.);
#113=EDGE_CURVE('',#94,#94,#79,.T.);
#114=EDGE_CURVE('',#94,#95,#65,.T.);
#115=EDGE_CURVE('',#95,#95,#80,.T.);
#116=EDGE_CURVE('',#90,#96,#66,.T.);
#117=EDGE_CURVE('',#96,#96,#81,.T.);
#118=EDGE_CURVE('',#97,#97,#82,.T.);
#119=EDGE_CURVE('',#97,#98,#83,.T.);
#120=EDGE_CURVE('',#98,#98,#84,.T.);
#121=ORIENTED_EDGE('',*,*,#99,.T.);
#122=ORIENTED_EDGE('',*,*,#100,.T.);
#123=ORIENTED_EDGE('',*,*,#101,.F.);
#124=ORIENTED_EDGE('',*,*,#102,.F.);
#125=ORIENTED_EDGE('',*,*,#100,.F.);
#126=ORIENTED_EDGE('',*,*,#101,.T.);
#127=ORIENTED_EDGE('',*,*,#103,.T.);
#128=ORIENTED_EDGE('',*,*,#104,.T.);
#129=ORIENTED_EDGE('',*,*,#105,.T.);
#130=ORIENTED_EDGE('',*,*,#103,.F.);
#131=ORIENTED_EDGE('',*,*,#102,.T.);
#132=ORIENTED_EDGE('',*,*,#105,.F.);
#133=ORIENTED_EDGE('',*,*,#104,.F.);
#134=ORIENTED_EDGE('',*,*,#106,.T.);
#135=ORIENTED_EDGE('',*,*,#107,.T.);
#136=ORIENTED_EDGE('',*,*,#106,.F.);
#137=ORIENTED_EDGE('',*,*,#108,.F.);
#138=ORIENTED_EDGE('',*,*,#109,.T.);
#139=ORIENTED_EDGE('',*,*,#110,.F.);
#140=ORIENTED_EDGE('',*,*,#109,.F.);
#141=ORIENTED_EDGE('',*,*,#99,.F.);
#142=ORIENTED_EDGE('',*,*,#111,.T.);
#143=ORIENTED_EDGE('',*,*,#112,.F.);
#144=ORIENTED_EDGE('',*,*,#111,.F.);
#145=ORIENTED_EDGE('',*,*,#112,.T.);
#146=ORIENTED_EDGE('',*,*,#110,.T.);
#147=ORIENTED_EDGE('',*,*,#113,.T.);
#148=ORIENTED_EDGE('',*,*,#114,.T.);
#149=ORIENTED_EDGE('',*,*,#115,.T.);
#150=ORIENTED_EDGE('',*,*,#114,.F.);
#151=ORIENTED_EDGE('',*,*,#107,.F.);
#152=ORIENTED_EDGE('',*,*,#116,.T.);
#153=ORIENTED_EDGE('',*,*,#117,.T.);
#154=ORIENTED_EDGE('',*,*,#116,.F.);
#155=ORIENTED_EDGE('',*,*,#117,.F.);
#156=ORIENTED_EDGE('',*,*,#115,.F.);
#157=ORIENTED_EDGE('',*,*,#118,.F.);
#158=ORIENTED_EDGE('',*,*,#119,.T.);
#159=ORIENTED_EDGE('',*,*,#120,.T.);
#160=ORIENTED_EDGE('',*,*,#119,.F.);
#161=ORIENTED_EDGE('',*,*,#108,.T.);
#162=ORIENTED_EDGE('',*,*,#118,.T.);
#163=ORIENTED_EDGE('',*,*,#113,.F.);
#164=ORIENTED_EDGE('',*,*,#120,.F.);
#165=CONICAL_SURFACE('',#199,74.4608064662558,0.78539816339745);
#166=CONICAL_SURFACE('',#203,74.4608064662558,0.785398163397448);
#167=ADVANCED_FACE('',(#29),#165,.T.);
#168=ADVANCED_FACE('',(#30),#27,.T.);
#169=ADVANCED_FACE('',(#31),#166,.T.);
#170=ADVANCED_FACE('',(#32),#23,.F.);
#171=ADVANCED_FACE('',(#33),#24,.T.);
#172=ADVANCED_FACE('',(#34,#15),#19,.T.);
#173=ADVANCED_FACE('',(#35),#25,.F.);
#174=ADVANCED_FACE('',(#36),#26,.T.);
#175=ADVANCED_FACE('',(#37,#16),#20,.F.);
#176=ADVANCED_FACE('',(#38),#28,.F.);
#177=ADVANCED_FACE('',(#39,#17),#21,.T.);
#178=ADVANCED_FACE('',(#40,#18),#22,.F.);
#179=CLOSED_SHELL('',(#167,#168,#169,#170,#171,#172,#173,#174,#175,#176,
#177,#178));
#180=DERIVED_UNIT_ELEMENT(#182,1.);
#181=DERIVED_UNIT_ELEMENT(#409,-3.);
#182=(
MASS_UNIT()
NAMED_UNIT(*)
SI_UNIT($,.GRAM.)
);
#183=DERIVED_UNIT((#180,#181));
#184=MEASURE_REPRESENTATION_ITEM('density measure',
POSITIVE_RATIO_MEASURE(1.),#183);
#185=PROPERTY_DEFINITION_REPRESENTATION(#190,#187);
#186=PROPERTY_DEFINITION_REPRESENTATION(#191,#188);
#187=REPRESENTATION('material name',(#189),#406);
#188=REPRESENTATION('density',(#184),#406);
#189=DESCRIPTIVE_REPRESENTATION_ITEM('PVC','PVC');
#190=PROPERTY_DEFINITION('material property','material name',#416);
#191=PROPERTY_DEFINITION('material property','density of part',#416);
#192=DATE_TIME_ROLE('creation_date');
#193=APPLIED_DATE_AND_TIME_ASSIGNMENT(#194,#192,(#416));
#194=DATE_AND_TIME(#195,#196);
#195=CALENDAR_DATE(2021,19,10);
#196=LOCAL_TIME(0,0,0.,#197);
#197=COORDINATED_UNIVERSAL_TIME_OFFSET(0,0,.BEHIND.);
#198=AXIS2_PLACEMENT_3D('placement',#279,#223,#224);
#199=AXIS2_PLACEMENT_3D('',#280,#225,#226);
#200=AXIS2_PLACEMENT_3D('',#282,#227,#228);
#201=AXIS2_PLACEMENT_3D('',#326,#230,#231);
#202=AXIS2_PLACEMENT_3D('',#328,#232,#233);
#203=AXIS2_PLACEMENT_3D('',#370,#234,#235);
#204=AXIS2_PLACEMENT_3D('',#373,#237,#238);
#205=AXIS2_PLACEMENT_3D('',#374,#239,#240);
#206=AXIS2_PLACEMENT_3D('',#376,#241,#242);
#207=AXIS2_PLACEMENT_3D('',#379,#244,#245);
#208=AXIS2_PLACEMENT_3D('',#380,#246,#247);
#209=AXIS2_PLACEMENT_3D('',#383,#249,#250);
#210=AXIS2_PLACEMENT_3D('',#384,#251,#252);
#211=AXIS2_PLACEMENT_3D('',#385,#253,#254);
#212=AXIS2_PLACEMENT_3D('',#387,#255,#256);
#213=AXIS2_PLACEMENT_3D('',#390,#258,#259);
#214=AXIS2_PLACEMENT_3D('',#391,#260,#261);
#215=AXIS2_PLACEMENT_3D('',#394,#263,#264);
#216=AXIS2_PLACEMENT_3D('',#395,#265,#266);
#217=AXIS2_PLACEMENT_3D('',#396,#267,#268);
#218=AXIS2_PLACEMENT_3D('',#398,#269,#270);
#219=AXIS2_PLACEMENT_3D('',#400,#271,#272);
#220=AXIS2_PLACEMENT_3D('',#401,#273,#274);
#221=AXIS2_PLACEMENT_3D('',#402,#275,#276);
#222=AXIS2_PLACEMENT_3D('',#403,#277,#278);
#223=DIRECTION('axis',(0.,0.,1.));
#224=DIRECTION('refdir',(1.,0.,0.));
#225=DIRECTION('center_axis',(0.25881904510252,0.965925826289068,0.));
#226=DIRECTION('ref_axis',(-0.965925826289068,0.25881904510252,0.));
#227=DIRECTION('center_axis',(-0.25881904510252,-0.965925826289068,0.));
#228=DIRECTION('ref_axis',(-0.965925826289069,0.25881904510252,0.));
#229=DIRECTION('',(-0.866025403784439,-0.499999999999999,8.65956056235495E-17));
#230=DIRECTION('center_axis',(0.,0.,-1.));
#231=DIRECTION('ref_axis',(-1.,0.,0.));
#232=DIRECTION('center_axis',(0.,0.,1.));
#233=DIRECTION('ref_axis',(-1.,0.,0.));
#234=DIRECTION('center_axis',(0.,-1.,0.));
#235=DIRECTION('ref_axis',(-1.,0.,0.));
#236=DIRECTION('',(0.707106781186548,-0.707106781186548,-8.65956056235493E-17));
#237=DIRECTION('center_axis',(0.,1.,0.));
#238=DIRECTION('ref_axis',(-1.,0.,0.));
#239=DIRECTION('center_axis',(-0.25881904510252,-0.965925826289068,0.));
#240=DIRECTION('ref_axis',(0.965925826289068,-0.25881904510252,0.));
#241=DIRECTION('center_axis',(0.258819045102521,0.965925826289068,0.));
#242=DIRECTION('ref_axis',(-0.965925826289068,0.258819045102521,0.));
#243=DIRECTION('',(0.25881904510252,0.965925826289068,0.));
#244=DIRECTION('center_axis',(-0.25881904510252,-0.965925826289068,0.));
#245=DIRECTION('ref_axis',(0.965925826289068,-0.25881904510252,0.));
#246=DIRECTION('center_axis',(-0.25881904510252,-0.965925826289068,0.));
#247=DIRECTION('ref_axis',(-0.965925826289069,0.25881904510252,0.));
#248=DIRECTION('',(0.25881904510252,0.965925826289069,0.));
#249=DIRECTION('center_axis',(0.25881904510252,0.965925826289068,0.));
#250=DIRECTION('ref_axis',(-0.965925826289069,0.25881904510252,0.));
#251=DIRECTION('center_axis',(0.25881904510252,0.965925826289068,0.));
#252=DIRECTION('ref_axis',(0.,0.,1.));
#253=DIRECTION('center_axis',(0.,1.,0.));
#254=DIRECTION('ref_axis',(1.,0.,0.));
#255=DIRECTION('center_axis',(-1.78163247214116E-16,1.,0.));
#256=DIRECTION('ref_axis',(-1.,-1.78163247214116E-16,0.));
#257=DIRECTION('',(0.,-1.,0.));
#258=DIRECTION('center_axis',(0.,-1.,0.));
#259=DIRECTION('ref_axis',(1.,0.,0.));
#260=DIRECTION('center_axis',(0.,1.,0.));
#261=DIRECTION('ref_axis',(-1.,0.,0.));
#262=DIRECTION('',(0.,-1.,0.));
#263=DIRECTION('center_axis',(0.,1.,0.));
#264=DIRECTION('ref_axis',(-1.,0.,0.));
#265=DIRECTION('center_axis',(0.,1.,0.));
#266=DIRECTION('ref_axis',(0.,0.,1.));
#267=DIRECTION('center_axis',(0.,0.,-1.));
#268=DIRECTION('ref_axis',(-1.,0.,0.));
#269=DIRECTION('center_axis',(-0.258819045102521,-0.965925826289068,0.));
#270=DIRECTION('ref_axis',(0.965925826289068,-0.258819045102521,0.));
#271=DIRECTION('center_axis',(0.,0.,1.));
#272=DIRECTION('ref_axis',(-1.,0.,0.));
#273=DIRECTION('center_axis',(1.78163247214116E-16,-1.,0.));
#274=DIRECTION('ref_axis',(1.,1.78163247214116E-16,0.));
#275=DIRECTION('center_axis',(0.258819045102521,0.965925826289068,0.));
#276=DIRECTION('ref_axis',(0.,0.,1.));
#277=DIRECTION('center_axis',(-1.78163247214116E-16,1.,0.));
#278=DIRECTION('ref_axis',(0.,0.,1.));
#279=CARTESIAN_POINT('',(0.,0.,0.));
#280=CARTESIAN_POINT('Origin',(14.3543129702121,200.571025312576,0.));
#281=CARTESIAN_POINT('',(91.8372829829877,184.508845014245,-9.6747097132641E-15));
#282=CARTESIAN_POINT('Origin',(15.5291427061513,204.955549577344,0.));
#283=CARTESIAN_POINT('',(80.9402679649656,178.217450460226,-2.07210168575981E-15));
#284=CARTESIAN_POINT('',(86.2779289822806,181.299150485416,-9.11881883008308E-15));
#285=CARTESIAN_POINT('',(-54.3596085130279,214.283546139029,0.));
#286=CARTESIAN_POINT('Ctrl Pts',(-54.3596085130279,214.283546139029,-1.11022302462516E-15));
#287=CARTESIAN_POINT('Ctrl Pts',(-54.3596085130279,214.283546139029,-5.16111493149814));
#288=CARTESIAN_POINT('Ctrl Pts',(-53.8080442985026,214.136337751419,-10.3064206339355));
#289=CARTESIAN_POINT('Ctrl Pts',(-51.6223173327958,213.55300328558,-20.3758416735837));
#290=CARTESIAN_POINT('Ctrl Pts',(-49.9952262080734,213.118764675739,-25.2692138813433));
#291=CARTESIAN_POINT('Ctrl Pts',(-44.0939879051399,211.543929028301,-38.1790957747977));
#292=CARTESIAN_POINT('Ctrl Pts',(-38.8030979134805,210.132046089491,-45.583576828274));
#293=CARTESIAN_POINT('Ctrl Pts',(-25.7729894413408,206.655567160227,-57.8766308105362));
#294=CARTESIAN_POINT('Ctrl Pts',(-18.157856961427,204.624088351222,-62.6465878115832));
#295=CARTESIAN_POINT('Ctrl Pts',(-1.58969998954228,200.205279880579,-68.8934214095484));
#296=CARTESIAN_POINT('Ctrl Pts',(7.20455439992158,197.86030723152,-70.3109510759371));
#297=CARTESIAN_POINT('Ctrl Pts',(24.8162317603662,193.165489185223,-69.5754427778363));
#298=CARTESIAN_POINT('Ctrl Pts',(33.4654378082659,190.860492464436,-67.4321612807921));
#299=CARTESIAN_POINT('Ctrl Pts',(49.4748434332534,186.595198536058,-59.8395132971424));
#300=CARTESIAN_POINT('Ctrl Pts',(56.6838328282205,184.67517910844,-54.4660483294506));
#301=CARTESIAN_POINT('Ctrl Pts',(68.7056918418277,181.474003277784,-41.166992943194));
#302=CARTESIAN_POINT('Ctrl Pts',(73.4050073547061,180.223061121732,-33.3693114906596));
#303=CARTESIAN_POINT('Ctrl Pts',(79.4473661934331,178.614743209436,-16.9140960202213));
#304=CARTESIAN_POINT('Ctrl Pts',(80.9402679649656,178.217450460226,-8.48959383896129));
#305=CARTESIAN_POINT('Ctrl Pts',(80.9402679649656,178.217450460226,6.66133814775094E-15));
#306=CARTESIAN_POINT('Ctrl Pts',(80.9402679649656,178.217450460226,8.88178419700125E-15));
#307=CARTESIAN_POINT('Ctrl Pts',(80.9402679649656,178.217450460226,0.61039901974092));
#308=CARTESIAN_POINT('Ctrl Pts',(80.9325507914143,178.219504292606,1.22113453490437));
#309=CARTESIAN_POINT('Ctrl Pts',(80.6863027808566,178.285040292316,10.9518542670784));
#310=CARTESIAN_POINT('Ctrl Pts',(78.7344607410082,178.804468801402,19.937451184084));
#311=CARTESIAN_POINT('Ctrl Pts',(71.6074554211571,180.701568374562,36.6313829425586));
#312=CARTESIAN_POINT('Ctrl Pts',(66.4990713800736,182.061487174162,44.1788600226723));
#313=CARTESIAN_POINT('Ctrl Pts',(53.7752027664703,185.449829600342,56.8158241068488));
#314=CARTESIAN_POINT('Ctrl Pts',(46.2828711619483,187.445478498203,61.7856903284016));
#315=CARTESIAN_POINT('Ctrl Pts',(29.8861083363939,191.814324122098,68.46897550865));
#316=CARTESIAN_POINT('Ctrl Pts',(21.1394033948831,194.145498683361,70.1213891932197));
#317=CARTESIAN_POINT('Ctrl Pts',(3.53167012370449,198.839614299269,69.8648030357123));
#318=CARTESIAN_POINT('Ctrl Pts',(-5.16140454268974,201.157770516928,67.9602824677349));
#319=CARTESIAN_POINT('Ctrl Pts',(-21.3526477263129,205.476308370137,60.8129635707059));
#320=CARTESIAN_POINT('Ctrl Pts',(-28.6965469038566,207.435530738719,55.6388680810823));
#321=CARTESIAN_POINT('Ctrl Pts',(-41.0577306667236,210.73366949668,42.669198923773));
#322=CARTESIAN_POINT('Ctrl Pts',(-45.9565837020495,212.040976935317,34.9970834883832));
#323=CARTESIAN_POINT('Ctrl Pts',(-52.6400432794888,213.82459660292,18.1385802325667));
#324=CARTESIAN_POINT('Ctrl Pts',(-54.3596085130279,214.283546139029,9.11287397906486));
#325=CARTESIAN_POINT('Ctrl Pts',(-54.3596085130279,214.283546139029,0.));
#326=CARTESIAN_POINT('Origin',(455.745246763507,87.,0.));
#327=CARTESIAN_POINT('',(70.1026244954669,95.8973755045331,8.72715589551636E-15));
#328=CARTESIAN_POINT('Origin',(455.745246763507,87.,8.57252759403147E-15));
#329=CARTESIAN_POINT('',(-69.9216129325116,96.0783870674884,0.));
#330=CARTESIAN_POINT('Ctrl Pts',(70.1026244954669,95.8973755045331,4.9960036108132E-15));
#331=CARTESIAN_POINT('Ctrl Pts',(70.1026244954669,95.8973755045331,-1.17981288878382));
#332=CARTESIAN_POINT('Ctrl Pts',(70.0727904094341,95.8974259530292,-2.360726102847));
#333=CARTESIAN_POINT('Ctrl Pts',(69.5440577623324,95.8983194927193,-12.7953504773453));
#334=CARTESIAN_POINT('Ctrl Pts',(67.2420786011607,95.9022388281389,-21.8643659232747));
#335=CARTESIAN_POINT('Ctrl Pts',(59.2447487104781,95.9153598638473,-38.5689715045687));
#336=CARTESIAN_POINT('Ctrl Pts',(53.6323112468479,95.9244009745859,-46.0414396420682));
#337=CARTESIAN_POINT('Ctrl Pts',(39.8207179895098,95.9455220881891,-58.3758475018488));
#338=CARTESIAN_POINT('Ctrl Pts',(31.7555896461321,95.9573756120593,-63.1137973109792));
#339=CARTESIAN_POINT('Ctrl Pts',(14.5114502377641,95.9813116480569,-69.0853289057025));
#340=CARTESIAN_POINT('Ctrl Pts',(5.53290126083167,95.9931534204006,-70.3640094239716));
#341=CARTESIAN_POINT('Ctrl Pts',(-12.2646091919025,96.0154488161244,-69.4655246983837));
#342=CARTESIAN_POINT('Ctrl Pts',(-20.9241243785463,96.0257311388655,-67.3544470272692));
#343=CARTESIAN_POINT('Ctrl Pts',(-36.9721083230488,96.0440280750258,-60.0366808588311));
#344=CARTESIAN_POINT('Ctrl Pts',(-44.221872718001,96.0518975062127,-54.9059611593385));
#345=CARTESIAN_POINT('Ctrl Pts',(-56.4954689611014,96.0648731917188,-42.1679366647001));
#346=CARTESIAN_POINT('Ctrl Pts',(-61.3864363268454,96.0698433790778,-34.6537574187305));
#347=CARTESIAN_POINT('Ctrl Pts',(-68.1621537722385,96.0766617871605,-18.0358389644382));
#348=CARTESIAN_POINT('Ctrl Pts',(-69.9216129325116,96.0783870674884,-9.06075852948611));
#349=CARTESIAN_POINT('Ctrl Pts',(-69.9216129325116,96.0783870674884,2.22044604925031E-15));
#350=CARTESIAN_POINT('Ctrl Pts',(-69.9216129325116,96.0783870674884,2.22044604925031E-15));
#351=CARTESIAN_POINT('Ctrl Pts',(-69.9216129325116,96.0783870674884,5.57418599676525));
#352=CARTESIAN_POINT('Ctrl Pts',(-69.2557062114676,96.0777307155415,11.1284524148454));
#353=CARTESIAN_POINT('Ctrl Pts',(-66.6488997257794,96.0751356147748,21.8438599922498));
#354=CARTESIAN_POINT('Ctrl Pts',(-64.7447751856118,96.073233433058,26.9742501842002));
#355=CARTESIAN_POINT('Ctrl Pts',(-58.0507605828728,96.0664404660311,40.0831567546808));
#356=CARTESIAN_POINT('Ctrl Pts',(-52.240240781632,96.0604608488398,47.416708522289));
#357=CARTESIAN_POINT('Ctrl Pts',(-38.1018031773138,96.0452425907166,59.3949448854971));
#358=CARTESIAN_POINT('Ctrl Pts',(-29.9136895504587,96.0361432235938,63.9214483616591));
#359=CARTESIAN_POINT('Ctrl Pts',(-12.1973485245627,96.0153581367048,69.5410779170861));
#360=CARTESIAN_POINT('Ctrl Pts',(-2.83825579968958,96.0038514727402,70.5570118909223));
#361=CARTESIAN_POINT('Ctrl Pts',(15.4693665735581,95.9800352242839,68.8884404357561));
#362=CARTESIAN_POINT('Ctrl Pts',(24.2493416738305,95.9679767917708,66.3217652111397));
#363=CARTESIAN_POINT('Ctrl Pts',(40.0922298322713,95.9451485112214,58.1152640428686));
#364=CARTESIAN_POINT('Ctrl Pts',(47.0597669655603,95.934561127829,52.6462946316721));
#365=CARTESIAN_POINT('Ctrl Pts',(58.5369804281186,95.9165526529475,39.5005942904251));
#366=CARTESIAN_POINT('Ctrl Pts',(62.9768452723141,95.9092677718014,31.965808519314));
#367=CARTESIAN_POINT('Ctrl Pts',(68.6926359623751,95.8997797693427,16.1688498325307));
#368=CARTESIAN_POINT('Ctrl Pts',(70.1026244954669,95.8973755045331,8.11042363233367));
#369=CARTESIAN_POINT('Ctrl Pts',(70.1026244954669,95.8973755045331,8.88178419700125E-15));
#370=CARTESIAN_POINT('Origin',(0.,91.5391935337442,0.));
#371=CARTESIAN_POINT('',(79.,87.,-9.67470971326409E-15));
#372=CARTESIAN_POINT('',(74.4608064662558,91.5391935337442,-9.11881883008307E-15));
#373=CARTESIAN_POINT('Origin',(0.,87.,0.));
#374=CARTESIAN_POINT('Origin',(38.0463996300705,288.991096464493,0.));
#375=CARTESIAN_POINT('',(-52.0856651340836,223.07288273452,0.));
#376=CARTESIAN_POINT('Origin',(15.5291427061512,204.955549577344,0.));
#377=CARTESIAN_POINT('',(-29.5684082101643,307.108429621669,8.57252759403147E-15));
#378=CARTESIAN_POINT('',(-29.5684082101643,307.108429621669,-8.57252759403147E-15));
#379=CARTESIAN_POINT('Origin',(38.0463996300705,288.991096464493,0.));
#380=CARTESIAN_POINT('Origin',(38.0463996300705,288.991096464493,0.));
#381=CARTESIAN_POINT('',(114.354539906907,268.544391901394,9.67470971326409E-15));
#382=CARTESIAN_POINT('',(114.354539906907,268.544391901394,9.67470971326409E-15));
#383=CARTESIAN_POINT('Origin',(38.0463996300705,288.991096464493,0.));
#384=CARTESIAN_POINT('Origin',(38.0463996300705,288.991096464493,0.));
#385=CARTESIAN_POINT('Origin',(0.,0.,0.));
#386=CARTESIAN_POINT('',(-70.,87.,8.57252759403147E-15));
#387=CARTESIAN_POINT('Origin',(-1.39664899375665E-30,87.,0.));
#388=CARTESIAN_POINT('',(-70.,0.,8.57252759403147E-15));
#389=CARTESIAN_POINT('',(-70.,0.,8.57252759403147E-15));
#390=CARTESIAN_POINT('Origin',(0.,0.,0.));
#391=CARTESIAN_POINT('Origin',(0.,0.,0.));
#392=CARTESIAN_POINT('',(79.,0.,-9.67470971326409E-15));
#393=CARTESIAN_POINT('',(79.,0.,-9.67470971326409E-15));
#394=CARTESIAN_POINT('Origin',(0.,0.,0.));
#395=CARTESIAN_POINT('Origin',(0.,0.,0.));
#396=CARTESIAN_POINT('Origin',(455.745246763507,87.,0.));
#397=CARTESIAN_POINT('',(74.4506181097843,189.16758782609,7.47034547479885E-15));
#398=CARTESIAN_POINT('Origin',(15.5291427061512,204.955549577344,0.));
#399=CARTESIAN_POINT('',(61.,87.,7.47034547479885E-15));
#400=CARTESIAN_POINT('Origin',(455.745246763507,87.,7.47034547479885E-15));
#401=CARTESIAN_POINT('Origin',(-1.39664899375665E-30,87.,0.));
#402=CARTESIAN_POINT('Origin',(15.5291427061512,204.955549577344,0.));
#403=CARTESIAN_POINT('Origin',(-4.43326316028055E-62,87.,0.));
#404=UNCERTAINTY_MEASURE_WITH_UNIT(LENGTH_MEASURE(0.01),#408,
'DISTANCE_ACCURACY_VALUE',
'Maximum model space distance between geometric entities at asserted c
onnectivities');
#405=UNCERTAINTY_MEASURE_WITH_UNIT(LENGTH_MEASURE(0.01),#408,
'DISTANCE_ACCURACY_VALUE',
'Maximum model space distance between geometric entities at asserted c
onnectivities');
#406=(
GEOMETRIC_REPRESENTATION_CONTEXT(3)
GLOBAL_UNCERTAINTY_ASSIGNED_CONTEXT((#404))
GLOBAL_UNIT_ASSIGNED_CONTEXT((#408,#410,#411))
REPRESENTATION_CONTEXT('','3D')
);
#407=(
GEOMETRIC_REPRESENTATION_CONTEXT(3)
GLOBAL_UNCERTAINTY_ASSIGNED_CONTEXT((#405))
GLOBAL_UNIT_ASSIGNED_CONTEXT((#408,#410,#411))
REPRESENTATION_CONTEXT('','3D')
);
#408=(
LENGTH_UNIT()
NAMED_UNIT(*)
SI_UNIT(.MILLI.,.METRE.)
);
#409=(
LENGTH_UNIT()
NAMED_UNIT(*)
SI_UNIT(.CENTI.,.METRE.)
);
#410=(
NAMED_UNIT(*)
PLANE_ANGLE_UNIT()
SI_UNIT($,.RADIAN.)
);
#411=(
NAMED_UNIT(*)
SI_UNIT($,.STERADIAN.)
SOLID_ANGLE_UNIT()
);
#412=SHAPE_DEFINITION_REPRESENTATION(#413,#414);
#413=PRODUCT_DEFINITION_SHAPE('',$,#416);
#414=SHAPE_REPRESENTATION('',(#198),#406);
#415=PRODUCT_DEFINITION_CONTEXT('part definition',#420,'design');
#416=PRODUCT_DEFINITION('KLIIV140','KLIIV140',#417,#415);
#417=PRODUCT_DEFINITION_FORMATION('0',$,#422);
#418=PRODUCT_RELATED_PRODUCT_CATEGORY('KLIIV140','KLIIV140',(#422));
#419=APPLICATION_PROTOCOL_DEFINITION('international standard',
'automotive_design',2009,#420);
#420=APPLICATION_CONTEXT(
'Core Data for Automotive Mechanical Design Process');
#421=PRODUCT_CONTEXT('part definition',#420,'mechanical');
#422=PRODUCT('KLIIV140','KLIIV140','PVC Bend 15\X\B0, \X\D8140, PN12,5',
(#421));
#423=PRESENTATION_STYLE_ASSIGNMENT((#424));
#424=SURFACE_STYLE_USAGE(.BOTH.,#427);
#425=SURFACE_STYLE_RENDERING_WITH_PROPERTIES($,#431,(#426));
#426=SURFACE_STYLE_TRANSPARENT(0.);
#427=SURFACE_SIDE_STYLE('',(#428,#425));
#428=SURFACE_STYLE_FILL_AREA(#429);
#429=FILL_AREA_STYLE('',(#430));
#430=FILL_AREA_STYLE_COLOUR('',#431);
#431=COLOUR_RGB('',0.250980392156863,0.290196078431373,0.329411764705882);
ENDSEC;
END-ISO-10303-21;
