ISO-10303-21;
HEADER;
/* Generated by software containing ST-Developer
 * from STEP Tools, Inc. (www.steptools.com) 
 */

FILE_DESCRIPTION(
/* description */ ('PVC Bend 15°, Ø225, PN12,5'),
/* implementation_level */ '2;1');

FILE_NAME(
/* name */ 
'KLIIV225',
/* time_stamp */ '2022-05-11T16:00:52+02:00',
/* author */ ('COAB Solutions'),
/* organization */ ('GPA Flowsystem'),
/* preprocessor_version */ 'ST-DEVELOPER v18.1',
/* originating_system */ 'www.coabsolutions.com',
/* authorisation */ '');

FILE_SCHEMA (('AUTOMOTIVE_DESIGN { 1 0 10303 214 3 1 1 }'));
ENDSEC;

DATA;
#10=MECHANICAL_DESIGN_GEOMETRIC_PRESENTATION_REPRESENTATION('',(#13),#407);
#11=SHAPE_REPRESENTATION_RELATIONSHIP('SRR','None',#414,#12);
#12=ADVANCED_BREP_SHAPE_REPRESENTATION('',(#14),#406);
#13=STYLED_ITEM('',(#423),#14);
#14=MANIFOLD_SOLID_BREP('Solid2',#179);
#15=FACE_BOUND('',#47,.T.);
#16=FACE_BOUND('',#51,.T.);
#17=FACE_BOUND('',#54,.T.);
#18=FACE_BOUND('',#56,.T.);
#19=PLANE('',#210);
#20=PLANE('',#216);
#21=PLANE('',#221);
#22=PLANE('',#222);
#23=CYLINDRICAL_SURFACE('',#205,112.5);
#24=CYLINDRICAL_SURFACE('',#208,125.);
#25=CYLINDRICAL_SURFACE('',#211,112.5);
#26=CYLINDRICAL_SURFACE('',#214,125.);
#27=TOROIDAL_SURFACE('',#201,744.383903047064,112.5);
#28=TOROIDAL_SURFACE('',#217,744.383903047064,100.);
#29=FACE_OUTER_BOUND('',#41,.T.);
#30=FACE_OUTER_BOUND('',#42,.T.);
#31=FACE_OUTER_BOUND('',#43,.T.);
#32=FACE_OUTER_BOUND('',#44,.T.);
#33=FACE_OUTER_BOUND('',#45,.T.);
#34=FACE_OUTER_BOUND('',#46,.T.);
#35=FACE_OUTER_BOUND('',#48,.T.);
#36=FACE_OUTER_BOUND('',#49,.T.);
#37=FACE_OUTER_BOUND('',#50,.T.);
#38=FACE_OUTER_BOUND('',#52,.T.);
#39=FACE_OUTER_BOUND('',#53,.T.);
#40=FACE_OUTER_BOUND('',#55,.T.);
#41=EDGE_LOOP('',(#121,#122,#123,#124,#125));
#42=EDGE_LOOP('',(#126,#127,#128,#129,#130,#131));
#43=EDGE_LOOP('',(#132,#133,#134,#135,#136));
#44=EDGE_LOOP('',(#137,#138,#139,#140));
#45=EDGE_LOOP('',(#141,#142,#143,#144));
#46=EDGE_LOOP('',(#145));
#47=EDGE_LOOP('',(#146));
#48=EDGE_LOOP('',(#147,#148,#149,#150));
#49=EDGE_LOOP('',(#151,#152,#153,#154));
#50=EDGE_LOOP('',(#155));
#51=EDGE_LOOP('',(#156));
#52=EDGE_LOOP('',(#157,#158,#159,#160));
#53=EDGE_LOOP('',(#161));
#54=EDGE_LOOP('',(#162));
#55=EDGE_LOOP('',(#163));
#56=EDGE_LOOP('',(#164));
#57=B_SPLINE_CURVE_WITH_KNOTS('',3,(#286,#287,#288,#289,#290,#291,#292,
#293,#294,#295,#296,#297,#298,#299,#300,#301,#302,#303,#304,#305),
 .UNSPECIFIED.,.F.,.F.,(4,2,2,2,2,2,2,2,2,4),(-70.9021706606977,-68.413796208784,
-65.9260909415027,-61.5286080868912,-57.1300707500372,-52.7320071057713,
-48.3365059044612,-43.9445536804186,-39.5540400811054,-35.4556391901393),
 .UNSPECIFIED.);
#58=B_SPLINE_CURVE_WITH_KNOTS('',3,(#306,#307,#308,#309,#310,#311,#312,
#313,#314,#315,#316,#317,#318,#319,#320,#321,#322,#323,#324,#325),
 .UNSPECIFIED.,.F.,.F.,(4,2,2,2,2,2,2,2,2,4),(-35.4556391901393,-35.1607934862568,
-30.7631533684323,-26.36383444863,-21.9663228615638,-17.5716790668605,-13.1789452374876,
-8.78672688156498,-4.39396905502482,0.),.UNSPECIFIED.);
#59=B_SPLINE_CURVE_WITH_KNOTS('',3,(#330,#331,#332,#333,#334,#335,#336,
#337,#338,#339,#340,#341,#342,#343,#344,#345,#346,#347,#348,#349),
 .UNSPECIFIED.,.F.,.F.,(4,2,2,2,2,2,2,2,2,4),(-35.453685454053,-34.8843876906404,
-30.4168284565068,-25.9547816282312,-21.4883918704712,-17.1556045941626,
-12.896381177185,-8.65222926649951,-4.36858452901676,0.),.UNSPECIFIED.);
#60=B_SPLINE_CURVE_WITH_KNOTS('',3,(#350,#351,#352,#353,#354,#355,#356,
#357,#358,#359,#360,#361,#362,#363,#364,#365,#366,#367,#368,#369),
 .UNSPECIFIED.,.F.,.F.,(4,2,2,2,2,2,2,2,2,4),(-70.9004455460721,-68.2128017595316,
-65.5835483577713,-61.1163425546746,-56.6495434570079,-52.1563516573464,
-47.788154390091,-43.5553257784644,-39.3742068126237,-35.453685454053),
 .UNSPECIFIED.);
#61=LINE('',#284,#67);
#62=LINE('',#372,#68);
#63=LINE('',#378,#69);
#64=LINE('',#382,#70);
#65=LINE('',#389,#71);
#66=LINE('',#393,#72);
#67=VECTOR('',#229,118.703733389448);
#68=VECTOR('',#236,118.703733389448);
#69=VECTOR('',#243,112.5);
#70=VECTOR('',#248,125.);
#71=VECTOR('',#257,112.5);
#72=VECTOR('',#262,125.);
#73=CIRCLE('',#200,125.);
#74=CIRCLE('',#202,631.883903047064);
#75=CIRCLE('',#204,125.);
#76=CIRCLE('',#206,112.5);
#77=CIRCLE('',#207,112.5);
#78=CIRCLE('',#209,125.);
#79=CIRCLE('',#212,112.5);
#80=CIRCLE('',#213,112.5);
#81=CIRCLE('',#215,125.);
#82=CIRCLE('',#218,100.);
#83=CIRCLE('',#219,644.383903047064);
#84=CIRCLE('',#220,100.);
#85=VERTEX_POINT('',#281);
#86=VERTEX_POINT('',#283);
#87=VERTEX_POINT('',#285);
#88=VERTEX_POINT('',#327);
#89=VERTEX_POINT('',#329);
#90=VERTEX_POINT('',#371);
#91=VERTEX_POINT('',#375);
#92=VERTEX_POINT('',#377);
#93=VERTEX_POINT('',#381);
#94=VERTEX_POINT('',#386);
#95=VERTEX_POINT('',#388);
#96=VERTEX_POINT('',#392);
#97=VERTEX_POINT('',#397);
#98=VERTEX_POINT('',#399);
#99=EDGE_CURVE('',#85,#85,#73,.T.);
#100=EDGE_CURVE('',#85,#86,#61,.T.);
#101=EDGE_CURVE('',#87,#86,#57,.T.);
#102=EDGE_CURVE('',#86,#87,#58,.T.);
#103=EDGE_CURVE('',#86,#88,#74,.T.);
#104=EDGE_CURVE('',#88,#89,#59,.T.);
#105=EDGE_CURVE('',#89,#88,#60,.T.);
#106=EDGE_CURVE('',#88,#90,#62,.T.);
#107=EDGE_CURVE('',#90,#90,#75,.T.);
#108=EDGE_CURVE('',#91,#91,#76,.T.);
#109=EDGE_CURVE('',#91,#92,#63,.T.);
#110=EDGE_CURVE('',#92,#92,#77,.T.);
#111=EDGE_CURVE('',#85,#93,#64,.T.);
#112=EDGE_CURVE('',#93,#93,#78,.T.);
#113=EDGE_CURVE('',#94,#94,#79,.T.);
#114=EDGE_CURVE('',#94,#95,#65,.T.);
#115=EDGE_CURVE('',#95,#95,#80,.T.);
#116=EDGE_CURVE('',#90,#96,#66,.T.);
#117=EDGE_CURVE('',#96,#96,#81,.T.);
#118=EDGE_CURVE('',#97,#97,#82,.T.);
#119=EDGE_CURVE('',#97,#98,#83,.T.);
#120=EDGE_CURVE('',#98,#98,#84,.T.);
#121=ORIENTED_EDGE('',*,*,#99,.T.);
#122=ORIENTED_EDGE('',*,*,#100,.T.);
#123=ORIENTED_EDGE('',*,*,#101,.F.);
#124=ORIENTED_EDGE('',*,*,#102,.F.);
#125=ORIENTED_EDGE('',*,*,#100,.F.);
#126=ORIENTED_EDGE('',*,*,#101,.T.);
#127=ORIENTED_EDGE('',*,*,#103,.T.);
#128=ORIENTED_EDGE('',*,*,#104,.T.);
#129=ORIENTED_EDGE('',*,*,#105,.T.);
#130=ORIENTED_EDGE('',*,*,#103,.F.);
#131=ORIENTED_EDGE('',*,*,#102,.T.);
#132=ORIENTED_EDGE('',*,*,#105,.F.);
#133=ORIENTED_EDGE('',*,*,#104,.F.);
#134=ORIENTED_EDGE('',*,*,#106,.T.);
#135=ORIENTED_EDGE('',*,*,#107,.T.);
#136=ORIENTED_EDGE('',*,*,#106,.F.);
#137=ORIENTED_EDGE('',*,*,#108,.F.);
#138=ORIENTED_EDGE('',*,*,#109,.T.);
#139=ORIENTED_EDGE('',*,*,#110,.F.);
#140=ORIENTED_EDGE('',*,*,#109,.F.);
#141=ORIENTED_EDGE('',*,*,#99,.F.);
#142=ORIENTED_EDGE('',*,*,#111,.T.);
#143=ORIENTED_EDGE('',*,*,#112,.F.);
#144=ORIENTED_EDGE('',*,*,#111,.F.);
#145=ORIENTED_EDGE('',*,*,#112,.T.);
#146=ORIENTED_EDGE('',*,*,#110,.T.);
#147=ORIENTED_EDGE('',*,*,#113,.T.);
#148=ORIENTED_EDGE('',*,*,#114,.T.);
#149=ORIENTED_EDGE('',*,*,#115,.T.);
#150=ORIENTED_EDGE('',*,*,#114,.F.);
#151=ORIENTED_EDGE('',*,*,#107,.F.);
#152=ORIENTED_EDGE('',*,*,#116,.T.);
#153=ORIENTED_EDGE('',*,*,#117,.T.);
#154=ORIENTED_EDGE('',*,*,#116,.F.);
#155=ORIENTED_EDGE('',*,*,#117,.F.);
#156=ORIENTED_EDGE('',*,*,#115,.F.);
#157=ORIENTED_EDGE('',*,*,#118,.F.);
#158=ORIENTED_EDGE('',*,*,#119,.T.);
#159=ORIENTED_EDGE('',*,*,#120,.T.);
#160=ORIENTED_EDGE('',*,*,#119,.F.);
#161=ORIENTED_EDGE('',*,*,#108,.T.);
#162=ORIENTED_EDGE('',*,*,#118,.T.);
#163=ORIENTED_EDGE('',*,*,#113,.F.);
#164=ORIENTED_EDGE('',*,*,#120,.F.);
#165=CONICAL_SURFACE('',#199,118.703733389448,0.785398163397442);
#166=CONICAL_SURFACE('',#203,118.703733389448,0.785398163397448);
#167=ADVANCED_FACE('',(#29),#165,.T.);
#168=ADVANCED_FACE('',(#30),#27,.T.);
#169=ADVANCED_FACE('',(#31),#166,.T.);
#170=ADVANCED_FACE('',(#32),#23,.F.);
#171=ADVANCED_FACE('',(#33),#24,.T.);
#172=ADVANCED_FACE('',(#34,#15),#19,.T.);
#173=ADVANCED_FACE('',(#35),#25,.F.);
#174=ADVANCED_FACE('',(#36),#26,.T.);
#175=ADVANCED_FACE('',(#37,#16),#20,.F.);
#176=ADVANCED_FACE('',(#38),#28,.F.);
#177=ADVANCED_FACE('',(#39,#17),#21,.T.);
#178=ADVANCED_FACE('',(#40,#18),#22,.F.);
#179=CLOSED_SHELL('',(#167,#168,#169,#170,#171,#172,#173,#174,#175,#176,
#177,#178));
#180=DERIVED_UNIT_ELEMENT(#182,1.);
#181=DERIVED_UNIT_ELEMENT(#409,-3.);
#182=(
MASS_UNIT()
NAMED_UNIT(*)
SI_UNIT($,.GRAM.)
);
#183=DERIVED_UNIT((#180,#181));
#184=MEASURE_REPRESENTATION_ITEM('density measure',
POSITIVE_RATIO_MEASURE(1.),#183);
#185=PROPERTY_DEFINITION_REPRESENTATION(#190,#187);
#186=PROPERTY_DEFINITION_REPRESENTATION(#191,#188);
#187=REPRESENTATION('material name',(#189),#406);
#188=REPRESENTATION('density',(#184),#406);
#189=DESCRIPTIVE_REPRESENTATION_ITEM('PVC','PVC');
#190=PROPERTY_DEFINITION('material property','material name',#416);
#191=PROPERTY_DEFINITION('material property','density of part',#416);
#192=DATE_TIME_ROLE('creation_date');
#193=APPLIED_DATE_AND_TIME_ASSIGNMENT(#194,#192,(#416));
#194=DATE_AND_TIME(#195,#196);
#195=CALENDAR_DATE(2021,19,10);
#196=LOCAL_TIME(0,0,0.,#197);
#197=COORDINATED_UNIVERSAL_TIME_OFFSET(0,0,.BEHIND.);
#198=AXIS2_PLACEMENT_3D('placement',#279,#223,#224);
#199=AXIS2_PLACEMENT_3D('',#280,#225,#226);
#200=AXIS2_PLACEMENT_3D('',#282,#227,#228);
#201=AXIS2_PLACEMENT_3D('',#326,#230,#231);
#202=AXIS2_PLACEMENT_3D('',#328,#232,#233);
#203=AXIS2_PLACEMENT_3D('',#370,#234,#235);
#204=AXIS2_PLACEMENT_3D('',#373,#237,#238);
#205=AXIS2_PLACEMENT_3D('',#374,#239,#240);
#206=AXIS2_PLACEMENT_3D('',#376,#241,#242);
#207=AXIS2_PLACEMENT_3D('',#379,#244,#245);
#208=AXIS2_PLACEMENT_3D('',#380,#246,#247);
#209=AXIS2_PLACEMENT_3D('',#383,#249,#250);
#210=AXIS2_PLACEMENT_3D('',#384,#251,#252);
#211=AXIS2_PLACEMENT_3D('',#385,#253,#254);
#212=AXIS2_PLACEMENT_3D('',#387,#255,#256);
#213=AXIS2_PLACEMENT_3D('',#390,#258,#259);
#214=AXIS2_PLACEMENT_3D('',#391,#260,#261);
#215=AXIS2_PLACEMENT_3D('',#394,#263,#264);
#216=AXIS2_PLACEMENT_3D('',#395,#265,#266);
#217=AXIS2_PLACEMENT_3D('',#396,#267,#268);
#218=AXIS2_PLACEMENT_3D('',#398,#269,#270);
#219=AXIS2_PLACEMENT_3D('',#400,#271,#272);
#220=AXIS2_PLACEMENT_3D('',#401,#273,#274);
#221=AXIS2_PLACEMENT_3D('',#402,#275,#276);
#222=AXIS2_PLACEMENT_3D('',#403,#277,#278);
#223=DIRECTION('axis',(0.,0.,1.));
#224=DIRECTION('refdir',(1.,0.,0.));
#225=DIRECTION('center_axis',(0.258819045102522,0.965925826289068,0.));
#226=DIRECTION('ref_axis',(-0.965925826289068,0.258819045102522,0.));
#227=DIRECTION('center_axis',(-0.258819045102522,-0.965925826289068,0.));
#228=DIRECTION('ref_axis',(-0.965925826289068,0.258819045102522,0.));
#229=DIRECTION('',(-0.866025403784437,-0.500000000000004,8.65956056235488E-17));
#230=DIRECTION('center_axis',(0.,0.,-1.));
#231=DIRECTION('ref_axis',(-1.,0.,0.));
#232=DIRECTION('center_axis',(0.,0.,1.));
#233=DIRECTION('ref_axis',(-1.,0.,0.));
#234=DIRECTION('center_axis',(0.,-1.,0.));
#235=DIRECTION('ref_axis',(-1.,0.,0.));
#236=DIRECTION('',(0.707106781186548,-0.707106781186548,-8.65956056235494E-17));
#237=DIRECTION('center_axis',(0.,1.,0.));
#238=DIRECTION('ref_axis',(-1.,0.,0.));
#239=DIRECTION('center_axis',(-0.258819045102522,-0.965925826289068,0.));
#240=DIRECTION('ref_axis',(0.965925826289068,-0.258819045102522,0.));
#241=DIRECTION('center_axis',(0.258819045102521,0.965925826289068,0.));
#242=DIRECTION('ref_axis',(-0.965925826289068,0.258819045102521,0.));
#243=DIRECTION('',(0.258819045102522,0.965925826289068,0.));
#244=DIRECTION('center_axis',(-0.258819045102522,-0.965925826289068,0.));
#245=DIRECTION('ref_axis',(0.965925826289068,-0.258819045102522,0.));
#246=DIRECTION('center_axis',(-0.258819045102522,-0.965925826289068,0.));
#247=DIRECTION('ref_axis',(-0.965925826289068,0.258819045102522,0.));
#248=DIRECTION('',(0.258819045102522,0.965925826289068,0.));
#249=DIRECTION('center_axis',(0.258819045102522,0.965925826289068,0.));
#250=DIRECTION('ref_axis',(-0.965925826289068,0.258819045102522,0.));
#251=DIRECTION('center_axis',(0.258819045102522,0.965925826289068,0.));
#252=DIRECTION('ref_axis',(0.,0.,1.));
#253=DIRECTION('center_axis',(0.,1.,0.));
#254=DIRECTION('ref_axis',(1.,0.,0.));
#255=DIRECTION('center_axis',(2.72855966490484E-16,1.,0.));
#256=DIRECTION('ref_axis',(-1.,2.72855966490484E-16,0.));
#257=DIRECTION('',(0.,-1.,0.));
#258=DIRECTION('center_axis',(0.,-1.,0.));
#259=DIRECTION('ref_axis',(1.,0.,0.));
#260=DIRECTION('center_axis',(0.,1.,0.));
#261=DIRECTION('ref_axis',(-1.,0.,0.));
#262=DIRECTION('',(0.,-1.,0.));
#263=DIRECTION('center_axis',(0.,1.,0.));
#264=DIRECTION('ref_axis',(-1.,0.,0.));
#265=DIRECTION('center_axis',(0.,1.,0.));
#266=DIRECTION('ref_axis',(0.,0.,1.));
#267=DIRECTION('center_axis',(0.,0.,-1.));
#268=DIRECTION('ref_axis',(-1.,0.,0.));
#269=DIRECTION('center_axis',(-0.258819045102521,-0.965925826289068,0.));
#270=DIRECTION('ref_axis',(0.965925826289068,-0.258819045102521,0.));
#271=DIRECTION('center_axis',(0.,0.,1.));
#272=DIRECTION('ref_axis',(-1.,0.,0.));
#273=DIRECTION('center_axis',(-2.72855966490484E-16,-1.,0.));
#274=DIRECTION('ref_axis',(1.,-2.72855966490484E-16,0.));
#275=DIRECTION('center_axis',(0.258819045102521,0.965925826289068,0.));
#276=DIRECTION('ref_axis',(0.,0.,1.));
#277=DIRECTION('center_axis',(2.72855966490484E-16,1.,0.));
#278=DIRECTION('ref_axis',(0.,0.,1.));
#279=CARTESIAN_POINT('',(0.,0.,0.));
#280=CARTESIAN_POINT('Origin',(23.7346727081929,322.579004447995,0.));
#281=CARTESIAN_POINT('',(146.10499470618,296.308350338513,-1.53080849893419E-14));
#282=CARTESIAN_POINT('Origin',(25.3642664200469,328.660730976329,0.));
#283=CARTESIAN_POINT('',(130.944199631837,287.555261221212,-2.02187397369833E-14));
#284=CARTESIAN_POINT('',(138.393674465993,291.856217522034,-1.45370147142229E-14));
#285=CARTESIAN_POINT('',(-86.4721962331274,345.590471133769,0.));
#286=CARTESIAN_POINT('Ctrl Pts',(-86.4721962331273,345.590471133769,0.));
#287=CARTESIAN_POINT('Ctrl Pts',(-86.4721962331273,345.590471133769,-8.29458150637912));
#288=CARTESIAN_POINT('Ctrl Pts',(-85.5858612040736,345.353665769604,-16.5637624389688));
#289=CARTESIAN_POINT('Ctrl Pts',(-82.0733589436621,344.415241205107,-32.7473359676741));
#290=CARTESIAN_POINT('Ctrl Pts',(-79.4584099346659,343.716619342505,-40.6122932158917));
#291=CARTESIAN_POINT('Ctrl Pts',(-69.9758497193588,341.183319958153,-61.3582578660078));
#292=CARTESIAN_POINT('Ctrl Pts',(-61.4753992717924,338.912479899434,-73.2562940425369));
#293=CARTESIAN_POINT('Ctrl Pts',(-40.5421379047313,333.321039019957,-93.0098837194953));
#294=CARTESIAN_POINT('Ctrl Pts',(-28.3088802989448,330.053752974829,-100.675276350918));
#295=CARTESIAN_POINT('Ctrl Pts',(-1.6923645122951,322.94620681702,-110.716717928407));
#296=CARTESIAN_POINT('Ctrl Pts',(12.4359637097912,319.174036535863,-112.997249869322));
#297=CARTESIAN_POINT('Ctrl Pts',(40.7335806797432,311.620308260056,-111.822177282881));
#298=CARTESIAN_POINT('Ctrl Pts',(54.6325196700276,307.910924984956,-108.381139331103));
#299=CARTESIAN_POINT('Ctrl Pts',(80.3635928942992,301.045156121469,-96.1839013954743));
#300=CARTESIAN_POINT('Ctrl Pts',(91.9519619564306,297.953804495303,-87.5483290028549));
#301=CARTESIAN_POINT('Ctrl Pts',(111.278218732142,292.79908646553,-66.1720085432537));
#302=CARTESIAN_POINT('Ctrl Pts',(118.832985582246,290.784535113357,-53.6365270905955));
#303=CARTESIAN_POINT('Ctrl Pts',(128.544956225088,288.194908575289,-27.1854997828845));
#304=CARTESIAN_POINT('Ctrl Pts',(130.944199631837,287.555261221212,-13.6450385986541));
#305=CARTESIAN_POINT('Ctrl Pts',(130.944199631837,287.555261221212,-2.66453525910038E-14));
#306=CARTESIAN_POINT('Ctrl Pts',(130.944199631837,287.555261221212,-2.91433543964104E-14));
#307=CARTESIAN_POINT('Ctrl Pts',(130.944199631837,287.555261221212,0.981646529257745));
#308=CARTESIAN_POINT('Ctrl Pts',(130.931782862812,287.558571732495,1.96383430941852));
#309=CARTESIAN_POINT('Ctrl Pts',(130.535897513465,287.664121248541,17.6000781601472));
#310=CARTESIAN_POINT('Ctrl Pts',(127.400558209128,288.500017003505,32.0383033040078));
#311=CARTESIAN_POINT('Ctrl Pts',(115.95302943986,291.552508981064,58.8615563975446));
#312=CARTESIAN_POINT('Ctrl Pts',(107.748636006601,293.740388992538,70.988621533058));
#313=CARTESIAN_POINT('Ctrl Pts',(87.3114017800928,299.191706193386,91.2970328220724));
#314=CARTESIAN_POINT('Ctrl Pts',(75.2757893436248,302.402560440296,99.2856748411022));
#315=CARTESIAN_POINT('Ctrl Pts',(48.9318876848818,309.432261243995,110.032806677324));
#316=CARTESIAN_POINT('Ctrl Pts',(34.8766485217459,313.183587265069,112.692080416216));
#317=CARTESIAN_POINT('Ctrl Pts',(6.57900127146246,320.737734318922,112.286424477821));
#318=CARTESIAN_POINT('Ctrl Pts',(-7.39332966643052,324.468446419981,109.22785257446));
#319=CARTESIAN_POINT('Ctrl Pts',(-33.4185818420774,331.418404194807,97.7432703832719));
#320=CARTESIAN_POINT('Ctrl Pts',(-45.2233264059485,334.571360346318,89.4275037695141));
#321=CARTESIAN_POINT('Ctrl Pts',(-65.092510842273,339.878733141839,68.5813979758553));
#322=CARTESIAN_POINT('Ctrl Pts',(-72.9666720057715,341.982311773137,56.2496865686261));
#323=CARTESIAN_POINT('Ctrl Pts',(-83.7085679608784,344.852090195243,29.153047026362));
#324=CARTESIAN_POINT('Ctrl Pts',(-86.4721962331273,345.590471133769,14.6465635167494));
#325=CARTESIAN_POINT('Ctrl Pts',(-86.4721962331273,345.590471133769,-8.88178419700125E-15));
#326=CARTESIAN_POINT('Origin',(744.383903047064,136.,0.));
#327=CARTESIAN_POINT('',(112.621262657653,148.378737342347,2.27300097452923E-16));
#328=CARTESIAN_POINT('Origin',(744.383903047064,136.,1.37772764904077E-14));
#329=CARTESIAN_POINT('',(-112.407466778896,148.592533221104,0.));
#330=CARTESIAN_POINT('Ctrl Pts',(112.621262657653,148.378737342347,-1.60982338570648E-14));
#331=CARTESIAN_POINT('Ctrl Pts',(112.621262657653,148.378737342347,-1.89349490666697));
#332=CARTESIAN_POINT('Ctrl Pts',(112.573450930802,148.378796835987,-3.78875364155635));
#333=CARTESIAN_POINT('Ctrl Pts',(111.725030222517,148.37985192499,-20.5568175226087));
#334=CARTESIAN_POINT('Ctrl Pts',(108.026342089205,148.384486139697,-35.1330484049515));
#335=CARTESIAN_POINT('Ctrl Pts',(95.1751554474324,148.399999566066,-61.9812122129655));
#336=CARTESIAN_POINT('Ctrl Pts',(86.1561531094993,148.410688454498,-73.9911609888958));
#337=CARTESIAN_POINT('Ctrl Pts',(63.9594118342906,148.435654988755,-93.8167244993852));
#338=CARTESIAN_POINT('Ctrl Pts',(50.9967363924557,148.449665051931,-101.432558468966));
#339=CARTESIAN_POINT('Ctrl Pts',(23.2809025012068,148.477948007677,-111.03063847116));
#340=CARTESIAN_POINT('Ctrl Pts',(8.85015835131144,148.49193651303,-113.085499343569));
#341=CARTESIAN_POINT('Ctrl Pts',(-19.7535103090403,148.518265838845,-111.640080178822));
#342=CARTESIAN_POINT('Ctrl Pts',(-33.6700928618699,148.530404599387,-108.246489907169));
#343=CARTESIAN_POINT('Ctrl Pts',(-59.4592592057505,148.551999682192,-96.4846781428601));
#344=CARTESIAN_POINT('Ctrl Pts',(-71.109090736669,148.561284924614,-88.2389094150915));
#345=CARTESIAN_POINT('Ctrl Pts',(-90.8317340359062,148.576593124146,-67.7680150795423));
#346=CARTESIAN_POINT('Ctrl Pts',(-98.6910960414115,148.582455611385,-55.6925189219356));
#347=CARTESIAN_POINT('Ctrl Pts',(-109.579856008112,148.590498331253,-28.9862348209495));
#348=CARTESIAN_POINT('Ctrl Pts',(-112.407466778896,148.592533221104,-14.5619484300559));
#349=CARTESIAN_POINT('Ctrl Pts',(-112.407466778896,148.592533221104,4.44089209850063E-15));
#350=CARTESIAN_POINT('Ctrl Pts',(-112.407466778896,148.592533221104,-2.22044604925031E-15));
#351=CARTESIAN_POINT('Ctrl Pts',(-112.407466778896,148.592533221104,8.95881262180149));
#352=CARTESIAN_POINT('Ctrl Pts',(-111.337225105123,148.591759013522,17.8856166133295));
#353=CARTESIAN_POINT('Ctrl Pts',(-107.14782508687,148.588697958586,35.1063417625472));
#354=CARTESIAN_POINT('Ctrl Pts',(-104.08800983225,148.586454422405,43.3509202632545));
#355=CARTESIAN_POINT('Ctrl Pts',(-93.3307257288392,148.578441522655,64.4182821154733));
#356=CARTESIAN_POINT('Ctrl Pts',(-83.9928185313903,148.571387276632,76.2045453925184));
#357=CARTESIAN_POINT('Ctrl Pts',(-61.2714935196135,148.553430113584,95.4553724682906));
#358=CARTESIAN_POINT('Ctrl Pts',(-48.1128801922844,148.542691606923,102.73018358153));
#359=CARTESIAN_POINT('Ctrl Pts',(-19.6442751623707,148.518157578658,111.761301580768));
#360=CARTESIAN_POINT('Ctrl Pts',(-4.60637234876774,148.504573765302,113.394548608911));
#361=CARTESIAN_POINT('Ctrl Pts',(24.8100165103407,148.476450295593,110.715972992634));
#362=CARTESIAN_POINT('Ctrl Pts',(38.9176772262143,148.462207383329,106.593541529524));
#363=CARTESIAN_POINT('Ctrl Pts',(64.3771041237885,148.435233978698,93.4103425823307));
#364=CARTESIAN_POINT('Ctrl Pts',(75.5751805328483,148.42271954844,84.6233573842878));
#365=CARTESIAN_POINT('Ctrl Pts',(94.024258876329,148.401426143392,63.4989745762838));
#366=CARTESIAN_POINT('Ctrl Pts',(101.162206940316,148.392809182233,51.3889970865154));
#367=CARTESIAN_POINT('Ctrl Pts',(110.353564698315,148.381582932599,25.9958035089485));
#368=CARTESIAN_POINT('Ctrl Pts',(112.621262657653,148.378737342347,13.0397266615522));
#369=CARTESIAN_POINT('Ctrl Pts',(112.621262657653,148.378737342347,-4.44089209850063E-15));
#370=CARTESIAN_POINT('Origin',(0.,142.296266610552,0.));
#371=CARTESIAN_POINT('',(125.,136.,-1.53080849893419E-14));
#372=CARTESIAN_POINT('',(118.703733389448,142.296266610552,-1.45370147142229E-14));
#373=CARTESIAN_POINT('Origin',(0.,136.,0.));
#374=CARTESIAN_POINT('Origin',(60.5636565539899,460.026643351642,0.));
#375=CARTESIAN_POINT('',(-83.302389037473,357.777873550362,0.));
#376=CARTESIAN_POINT('Origin',(25.364266420047,328.660730976328,0.));
#377=CARTESIAN_POINT('',(-48.1029989035303,489.143785925676,1.37772764904077E-14));
#378=CARTESIAN_POINT('',(-48.1029989035303,489.143785925676,-1.37772764904077E-14));
#379=CARTESIAN_POINT('Origin',(60.5636565539899,460.026643351642,0.));
#380=CARTESIAN_POINT('Origin',(60.5636565539899,460.026643351642,0.));
#381=CARTESIAN_POINT('',(181.304384840123,427.674262713827,1.53080849893419E-14));
#382=CARTESIAN_POINT('',(181.304384840123,427.674262713827,1.53080849893419E-14));
#383=CARTESIAN_POINT('Origin',(60.5636565539899,460.026643351642,0.));
#384=CARTESIAN_POINT('Origin',(60.5636565539899,460.026643351642,0.));
#385=CARTESIAN_POINT('Origin',(0.,0.,0.));
#386=CARTESIAN_POINT('',(-112.5,136.,1.37772764904077E-14));
#387=CARTESIAN_POINT('Origin',(-1.39664899375665E-30,136.,0.));
#388=CARTESIAN_POINT('',(-112.5,0.,1.37772764904077E-14));
#389=CARTESIAN_POINT('',(-112.5,0.,1.37772764904077E-14));
#390=CARTESIAN_POINT('Origin',(0.,0.,0.));
#391=CARTESIAN_POINT('Origin',(0.,0.,0.));
#392=CARTESIAN_POINT('',(125.,0.,-1.53080849893419E-14));
#393=CARTESIAN_POINT('',(125.,0.,-1.53080849893419E-14));
#394=CARTESIAN_POINT('Origin',(0.,0.,0.));
#395=CARTESIAN_POINT('Origin',(0.,0.,0.));
#396=CARTESIAN_POINT('Origin',(744.383903047064,136.,0.));
#397=CARTESIAN_POINT('',(121.956849048954,302.778826466076,1.22464679914735E-14));
#398=CARTESIAN_POINT('Origin',(25.364266420047,328.660730976328,0.));
#399=CARTESIAN_POINT('',(100.,136.,1.22464679914735E-14));
#400=CARTESIAN_POINT('Origin',(744.383903047064,136.,1.22464679914735E-14));
#401=CARTESIAN_POINT('Origin',(-1.39664899375665E-30,136.,0.));
#402=CARTESIAN_POINT('Origin',(25.364266420047,328.660730976328,0.));
#403=CARTESIAN_POINT('Origin',(-1.03981046146234E-61,136.,0.));
#404=UNCERTAINTY_MEASURE_WITH_UNIT(LENGTH_MEASURE(0.01),#408,
'DISTANCE_ACCURACY_VALUE',
'Maximum model space distance between geometric entities at asserted c
onnectivities');
#405=UNCERTAINTY_MEASURE_WITH_UNIT(LENGTH_MEASURE(0.01),#408,
'DISTANCE_ACCURACY_VALUE',
'Maximum model space distance between geometric entities at asserted c
onnectivities');
#406=(
GEOMETRIC_REPRESENTATION_CONTEXT(3)
GLOBAL_UNCERTAINTY_ASSIGNED_CONTEXT((#404))
GLOBAL_UNIT_ASSIGNED_CONTEXT((#408,#410,#411))
REPRESENTATION_CONTEXT('','3D')
);
#407=(
GEOMETRIC_REPRESENTATION_CONTEXT(3)
GLOBAL_UNCERTAINTY_ASSIGNED_CONTEXT((#405))
GLOBAL_UNIT_ASSIGNED_CONTEXT((#408,#410,#411))
REPRESENTATION_CONTEXT('','3D')
);
#408=(
LENGTH_UNIT()
NAMED_UNIT(*)
SI_UNIT(.MILLI.,.METRE.)
);
#409=(
LENGTH_UNIT()
NAMED_UNIT(*)
SI_UNIT(.CENTI.,.METRE.)
);
#410=(
NAMED_UNIT(*)
PLANE_ANGLE_UNIT()
SI_UNIT($,.RADIAN.)
);
#411=(
NAMED_UNIT(*)
SI_UNIT($,.STERADIAN.)
SOLID_ANGLE_UNIT()
);
#412=SHAPE_DEFINITION_REPRESENTATION(#413,#414);
#413=PRODUCT_DEFINITION_SHAPE('',$,#416);
#414=SHAPE_REPRESENTATION('',(#198),#406);
#415=PRODUCT_DEFINITION_CONTEXT('part definition',#420,'design');
#416=PRODUCT_DEFINITION('KLIIV225','KLIIV225',#417,#415);
#417=PRODUCT_DEFINITION_FORMATION('0',$,#422);
#418=PRODUCT_RELATED_PRODUCT_CATEGORY('KLIIV225','KLIIV225',(#422));
#419=APPLICATION_PROTOCOL_DEFINITION('international standard',
'automotive_design',2009,#420);
#420=APPLICATION_CONTEXT(
'Core Data for Automotive Mechanical Design Process');
#421=PRODUCT_CONTEXT('part definition',#420,'mechanical');
#422=PRODUCT('KLIIV225','KLIIV225','PVC Bend 15\X\B0, \X\D8225, PN12,5',
(#421));
#423=PRESENTATION_STYLE_ASSIGNMENT((#424));
#424=SURFACE_STYLE_USAGE(.BOTH.,#427);
#425=SURFACE_STYLE_RENDERING_WITH_PROPERTIES($,#431,(#426));
#426=SURFACE_STYLE_TRANSPARENT(0.);
#427=SURFACE_SIDE_STYLE('',(#428,#425));
#428=SURFACE_STYLE_FILL_AREA(#429);
#429=FILL_AREA_STYLE('',(#430));
#430=FILL_AREA_STYLE_COLOUR('',#431);
#431=COLOUR_RGB('',0.250980392156863,0.290196078431373,0.329411764705882);
ENDSEC;
END-ISO-10303-21;
