ISO-10303-21;
HEADER;
FILE_DESCRIPTION(('STEP AP214'),'1');
FILE_NAME('cctmp_807C0F11-D5C1-4D25-9386-49B0D6DD6FA0_2022_11_01_10_52_50_0513..stp','2022-11-01T09:52:50',('Praher Valves GmbH'),('CADClick - www.CADClick.com'),'Spatial InterOp 3D',' ','unknown authorization');
FILE_SCHEMA(('AUTOMOTIVE_DESIGN'));
ENDSEC;
DATA;
#1=MECHANICAL_DESIGN_GEOMETRIC_PRESENTATION_REPRESENTATION(' ',(#10,#11,#12,#13,#14,#15,#16,#17,#18,#19,#20,#21,#22,#23),#6);
#2=PRODUCT_DEFINITION_CONTEXT('',#24,'design');
#3=APPLICATION_PROTOCOL_DEFINITION('INTERNATIONAL STANDARD','automotive_design',1994,#24);
#4=PRODUCT_CATEGORY_RELATIONSHIP('NONE','NONE',#25,#26);
#5=SHAPE_DEFINITION_REPRESENTATION(#27,#28);
#6= (GEOMETRIC_REPRESENTATION_CONTEXT(3)GLOBAL_UNCERTAINTY_ASSIGNED_CONTEXT((#31))GLOBAL_UNIT_ASSIGNED_CONTEXT((#33,#34,#35))REPRESENTATION_CONTEXT('NONE','WORKSPACE'));
#10=STYLED_ITEM('',(#37),#38);
#11=STYLED_ITEM('',(#39),#40);
#12=STYLED_ITEM('',(#41),#42);
#13=STYLED_ITEM('',(#43),#44);
#14=STYLED_ITEM('',(#45),#46);
#15=STYLED_ITEM('',(#47),#48);
#16=STYLED_ITEM('',(#49),#50);
#17=STYLED_ITEM('',(#51),#52);
#18=STYLED_ITEM('',(#53),#54);
#19=STYLED_ITEM('',(#55),#56);
#20=STYLED_ITEM('',(#57),#58);
#21=STYLED_ITEM('',(#59),#60);
#22=STYLED_ITEM('',(#61),#62);
#23=STYLED_ITEM('',(#63),#64);
#24=APPLICATION_CONTEXT(' ');
#25=PRODUCT_CATEGORY('part','NONE');
#26=PRODUCT_RELATED_PRODUCT_CATEGORY('detail',' ',(#65));
#27=PRODUCT_DEFINITION_SHAPE('NONE','NONE',#66);
#28=ADVANCED_BREP_SHAPE_REPRESENTATION('142693',(#64,#67),#6);
#31=UNCERTAINTY_MEASURE_WITH_UNIT(LENGTH_MEASURE(1.0E-006),#33,'','');
#33= (CONVERSION_BASED_UNIT('MILLIMETRE',#70)LENGTH_UNIT()NAMED_UNIT(#73));
#34= (NAMED_UNIT(#75)PLANE_ANGLE_UNIT()SI_UNIT($,.RADIAN.));
#35= (NAMED_UNIT(#75)SOLID_ANGLE_UNIT()SI_UNIT($,.STERADIAN.));
#37=PRESENTATION_STYLE_ASSIGNMENT((#81));
#38=ADVANCED_FACE('',(#82,#83),#84,.F.);
#39=PRESENTATION_STYLE_ASSIGNMENT((#85));
#40=ADVANCED_FACE('',(#86),#87,.F.);
#41=PRESENTATION_STYLE_ASSIGNMENT((#88));
#42=ADVANCED_FACE('',(#89),#90,.F.);
#43=PRESENTATION_STYLE_ASSIGNMENT((#91));
#44=ADVANCED_FACE('',(#92,#93),#94,.T.);
#45=PRESENTATION_STYLE_ASSIGNMENT((#95));
#46=ADVANCED_FACE('',(#96),#97,.T.);
#47=PRESENTATION_STYLE_ASSIGNMENT((#98));
#48=ADVANCED_FACE('',(#99),#100,.T.);
#49=PRESENTATION_STYLE_ASSIGNMENT((#101));
#50=ADVANCED_FACE('',(#102),#103,.T.);
#51=PRESENTATION_STYLE_ASSIGNMENT((#104));
#52=ADVANCED_FACE('',(#105),#106,.T.);
#53=PRESENTATION_STYLE_ASSIGNMENT((#107));
#54=ADVANCED_FACE('',(#108),#109,.T.);
#55=PRESENTATION_STYLE_ASSIGNMENT((#110));
#56=ADVANCED_FACE('',(#111),#112,.T.);
#57=PRESENTATION_STYLE_ASSIGNMENT((#113));
#58=ADVANCED_FACE('',(#114,#115),#116,.T.);
#59=PRESENTATION_STYLE_ASSIGNMENT((#117));
#60=ADVANCED_FACE('',(#118),#119,.T.);
#61=PRESENTATION_STYLE_ASSIGNMENT((#120));
#62=ADVANCED_FACE('',(#121),#122,.T.);
#63=PRESENTATION_STYLE_ASSIGNMENT((#123));
#64=MANIFOLD_SOLID_BREP('142693',#124);
#65=PRODUCT('142693','','PART--DESC',(#125));
#66=PRODUCT_DEFINITION('','NONE',#126,#2);
#67=AXIS2_PLACEMENT_3D('',#127,#128,#129);
#70=LENGTH_MEASURE_WITH_UNIT(LENGTH_MEASURE(1.0),#130);
#73=DIMENSIONAL_EXPONENTS(1.0,0.0,0.0,0.0,0.0,0.0,0.0);
#75=DIMENSIONAL_EXPONENTS(0.0,0.0,0.0,0.0,0.0,0.0,0.0);
#81=SURFACE_STYLE_USAGE(.BOTH.,#131);
#82=FACE_OUTER_BOUND('',#132,.T.);
#83=FACE_BOUND('',#133,.T.);
#84=PLANE('',#134);
#85=SURFACE_STYLE_USAGE(.BOTH.,#135);
#86=FACE_OUTER_BOUND('',#136,.T.);
#87=CYLINDRICAL_SURFACE('',#137,45.0);
#88=SURFACE_STYLE_USAGE(.BOTH.,#138);
#89=FACE_OUTER_BOUND('',#139,.T.);
#90=CYLINDRICAL_SURFACE('',#140,45.0);
#91=SURFACE_STYLE_USAGE(.BOTH.,#141);
#92=FACE_OUTER_BOUND('',#142,.T.);
#93=FACE_BOUND('',#143,.T.);
#94=PLANE('',#144);
#95=SURFACE_STYLE_USAGE(.BOTH.,#145);
#96=FACE_OUTER_BOUND('',#146,.T.);
#97=CYLINDRICAL_SURFACE('',#147,55.0);
#98=SURFACE_STYLE_USAGE(.BOTH.,#148);
#99=FACE_OUTER_BOUND('',#149,.T.);
#100=CYLINDRICAL_SURFACE('',#150,55.0);
#101=SURFACE_STYLE_USAGE(.BOTH.,#151);
#102=FACE_OUTER_BOUND('',#152,.T.);
#103=CONICAL_SURFACE('',#153,62.65,0.280837724621203);
#104=SURFACE_STYLE_USAGE(.BOTH.,#154);
#105=FACE_OUTER_BOUND('',#155,.T.);
#106=CONICAL_SURFACE('',#156,62.65,0.280837724621203);
#107=SURFACE_STYLE_USAGE(.BOTH.,#157);
#108=FACE_OUTER_BOUND('',#158,.T.);
#109=CYLINDRICAL_SURFACE('',#159,62.5);
#110=SURFACE_STYLE_USAGE(.BOTH.,#160);
#111=FACE_OUTER_BOUND('',#161,.T.);
#112=CYLINDRICAL_SURFACE('',#162,62.5);
#113=SURFACE_STYLE_USAGE(.BOTH.,#163);
#114=FACE_OUTER_BOUND('',#164,.T.);
#115=FACE_BOUND('',#165,.T.);
#116=PLANE('',#166);
#117=SURFACE_STYLE_USAGE(.BOTH.,#167);
#118=FACE_OUTER_BOUND('',#168,.T.);
#119=CYLINDRICAL_SURFACE('',#169,75.0);
#120=SURFACE_STYLE_USAGE(.BOTH.,#170);
#121=FACE_OUTER_BOUND('',#171,.T.);
#122=CYLINDRICAL_SURFACE('',#172,75.0);
#123=SURFACE_STYLE_USAGE(.BOTH.,#173);
#124=CLOSED_SHELL('',(#38,#40,#42,#44,#46,#48,#50,#52,#54,#56,#58,#60,#62));
#125=PRODUCT_CONTEXT('',#24,'mechanical');
#126=PRODUCT_DEFINITION_FORMATION_WITH_SPECIFIED_SOURCE(' ','NONE',#65,.NOT_KNOWN.);
#127=CARTESIAN_POINT('',(0.0,0.0,0.0));
#128=DIRECTION('',(0.0,0.0,1.0));
#129=DIRECTION('',(1.0,0.0,0.0));
#130= (NAMED_UNIT(#73)LENGTH_UNIT()SI_UNIT(.MILLI.,.METRE.));
#131=SURFACE_SIDE_STYLE('',(#175));
#132=EDGE_LOOP('',(#176,#177));
#133=EDGE_LOOP('',(#178,#179));
#134=AXIS2_PLACEMENT_3D('',#180,#181,#182);
#135=SURFACE_SIDE_STYLE('',(#183));
#136=EDGE_LOOP('',(#184,#185,#186,#187));
#137=AXIS2_PLACEMENT_3D('',#188,#189,#190);
#138=SURFACE_SIDE_STYLE('',(#191));
#139=EDGE_LOOP('',(#192,#193,#194,#195));
#140=AXIS2_PLACEMENT_3D('',#196,#197,#198);
#141=SURFACE_SIDE_STYLE('',(#199));
#142=EDGE_LOOP('',(#200,#201));
#143=EDGE_LOOP('',(#202,#203));
#144=AXIS2_PLACEMENT_3D('',#204,#205,#206);
#145=SURFACE_SIDE_STYLE('',(#207));
#146=EDGE_LOOP('',(#208,#209,#210,#211));
#147=AXIS2_PLACEMENT_3D('',#212,#213,#214);
#148=SURFACE_SIDE_STYLE('',(#215));
#149=EDGE_LOOP('',(#216,#217,#218,#219));
#150=AXIS2_PLACEMENT_3D('',#220,#221,#222);
#151=SURFACE_SIDE_STYLE('',(#223));
#152=EDGE_LOOP('',(#224,#225,#226,#227));
#153=AXIS2_PLACEMENT_3D('',#228,#229,#230);
#154=SURFACE_SIDE_STYLE('',(#231));
#155=EDGE_LOOP('',(#232,#233,#234,#235));
#156=AXIS2_PLACEMENT_3D('',#236,#237,#238);
#157=SURFACE_SIDE_STYLE('',(#239));
#158=EDGE_LOOP('',(#240,#241,#242,#243));
#159=AXIS2_PLACEMENT_3D('',#244,#245,#246);
#160=SURFACE_SIDE_STYLE('',(#247));
#161=EDGE_LOOP('',(#248,#249,#250,#251));
#162=AXIS2_PLACEMENT_3D('',#252,#253,#254);
#163=SURFACE_SIDE_STYLE('',(#255));
#164=EDGE_LOOP('',(#256,#257));
#165=EDGE_LOOP('',(#258,#259));
#166=AXIS2_PLACEMENT_3D('',#260,#261,#262);
#167=SURFACE_SIDE_STYLE('',(#263));
#168=EDGE_LOOP('',(#264,#265,#266,#267));
#169=AXIS2_PLACEMENT_3D('',#268,#269,#270);
#170=SURFACE_SIDE_STYLE('',(#271));
#171=EDGE_LOOP('',(#272,#273,#274,#275));
#172=AXIS2_PLACEMENT_3D('',#276,#277,#278);
#173=SURFACE_SIDE_STYLE('',(#279));
#175=SURFACE_STYLE_FILL_AREA(#280);
#176=ORIENTED_EDGE('',*,*,#281,.F.);
#177=ORIENTED_EDGE('',*,*,#282,.T.);
#178=ORIENTED_EDGE('',*,*,#283,.F.);
#179=ORIENTED_EDGE('',*,*,#284,.T.);
#180=CARTESIAN_POINT('',(-155.5,0.0,0.0));
#181=DIRECTION('',(1.0,0.0,0.0));
#182=DIRECTION('',(0.0,-1.0,0.0));
#183=SURFACE_STYLE_FILL_AREA(#285);
#184=ORIENTED_EDGE('',*,*,#286,.T.);
#185=ORIENTED_EDGE('',*,*,#287,.F.);
#186=ORIENTED_EDGE('',*,*,#284,.F.);
#187=ORIENTED_EDGE('',*,*,#288,.T.);
#188=CARTESIAN_POINT('',(-163.275,0.0,0.0));
#189=DIRECTION('',(1.0,0.0,0.0));
#190=DIRECTION('',(0.0,-1.0,0.0));
#191=SURFACE_STYLE_FILL_AREA(#289);
#192=ORIENTED_EDGE('',*,*,#283,.T.);
#193=ORIENTED_EDGE('',*,*,#287,.T.);
#194=ORIENTED_EDGE('',*,*,#290,.F.);
#195=ORIENTED_EDGE('',*,*,#288,.F.);
#196=CARTESIAN_POINT('',(-163.275,0.0,0.0));
#197=DIRECTION('',(1.0,0.0,0.0));
#198=DIRECTION('',(0.0,-1.0,0.0));
#199=SURFACE_STYLE_FILL_AREA(#291);
#200=ORIENTED_EDGE('',*,*,#292,.F.);
#201=ORIENTED_EDGE('',*,*,#293,.T.);
#202=ORIENTED_EDGE('',*,*,#286,.F.);
#203=ORIENTED_EDGE('',*,*,#290,.T.);
#204=CARTESIAN_POINT('',(0.0,0.0,0.0));
#205=DIRECTION('',(1.0,0.0,0.0));
#206=DIRECTION('',(0.0,-1.0,0.0));
#207=SURFACE_STYLE_FILL_AREA(#294);
#208=ORIENTED_EDGE('',*,*,#295,.T.);
#209=ORIENTED_EDGE('',*,*,#296,.F.);
#210=ORIENTED_EDGE('',*,*,#293,.F.);
#211=ORIENTED_EDGE('',*,*,#297,.T.);
#212=CARTESIAN_POINT('',(-163.275,0.0,0.0));
#213=DIRECTION('',(1.0,0.0,0.0));
#214=DIRECTION('',(0.0,-1.0,0.0));
#215=SURFACE_STYLE_FILL_AREA(#298);
#216=ORIENTED_EDGE('',*,*,#292,.T.);
#217=ORIENTED_EDGE('',*,*,#296,.T.);
#218=ORIENTED_EDGE('',*,*,#299,.F.);
#219=ORIENTED_EDGE('',*,*,#297,.F.);
#220=CARTESIAN_POINT('',(-163.275,0.0,0.0));
#221=DIRECTION('',(1.0,0.0,0.0));
#222=DIRECTION('',(0.0,-1.0,0.0));
#223=SURFACE_STYLE_FILL_AREA(#300);
#224=ORIENTED_EDGE('',*,*,#299,.T.);
#225=ORIENTED_EDGE('',*,*,#301,.T.);
#226=ORIENTED_EDGE('',*,*,#302,.F.);
#227=ORIENTED_EDGE('',*,*,#303,.F.);
#228=CARTESIAN_POINT('',(-141.52,0.0,0.0));
#229=DIRECTION('',(-1.0,-0.0,-0.0));
#230=DIRECTION('',(0.0,-1.0,0.0));
#231=SURFACE_STYLE_FILL_AREA(#304);
#232=ORIENTED_EDGE('',*,*,#305,.T.);
#233=ORIENTED_EDGE('',*,*,#301,.F.);
#234=ORIENTED_EDGE('',*,*,#295,.F.);
#235=ORIENTED_EDGE('',*,*,#303,.T.);
#236=CARTESIAN_POINT('',(-141.52,0.0,0.0));
#237=DIRECTION('',(-1.0,-0.0,-0.0));
#238=DIRECTION('',(0.0,-1.0,0.0));
#239=SURFACE_STYLE_FILL_AREA(#306);
#240=ORIENTED_EDGE('',*,*,#307,.T.);
#241=ORIENTED_EDGE('',*,*,#308,.F.);
#242=ORIENTED_EDGE('',*,*,#305,.F.);
#243=ORIENTED_EDGE('',*,*,#309,.T.);
#244=CARTESIAN_POINT('',(-163.275,0.0,0.0));
#245=DIRECTION('',(1.0,0.0,0.0));
#246=DIRECTION('',(0.0,-1.0,0.0));
#247=SURFACE_STYLE_FILL_AREA(#310);
#248=ORIENTED_EDGE('',*,*,#302,.T.);
#249=ORIENTED_EDGE('',*,*,#308,.T.);
#250=ORIENTED_EDGE('',*,*,#311,.F.);
#251=ORIENTED_EDGE('',*,*,#309,.F.);
#252=CARTESIAN_POINT('',(-163.275,0.0,0.0));
#253=DIRECTION('',(1.0,0.0,0.0));
#254=DIRECTION('',(0.0,-1.0,0.0));
#255=SURFACE_STYLE_FILL_AREA(#312);
#256=ORIENTED_EDGE('',*,*,#313,.F.);
#257=ORIENTED_EDGE('',*,*,#314,.T.);
#258=ORIENTED_EDGE('',*,*,#307,.F.);
#259=ORIENTED_EDGE('',*,*,#311,.T.);
#260=CARTESIAN_POINT('',(-142.0,0.0,0.0));
#261=DIRECTION('',(1.0,0.0,0.0));
#262=DIRECTION('',(0.0,-1.0,0.0));
#263=SURFACE_STYLE_FILL_AREA(#315);
#264=ORIENTED_EDGE('',*,*,#281,.T.);
#265=ORIENTED_EDGE('',*,*,#316,.F.);
#266=ORIENTED_EDGE('',*,*,#314,.F.);
#267=ORIENTED_EDGE('',*,*,#317,.T.);
#268=CARTESIAN_POINT('',(-163.275,0.0,0.0));
#269=DIRECTION('',(1.0,0.0,0.0));
#270=DIRECTION('',(0.0,-1.0,0.0));
#271=SURFACE_STYLE_FILL_AREA(#318);
#272=ORIENTED_EDGE('',*,*,#313,.T.);
#273=ORIENTED_EDGE('',*,*,#316,.T.);
#274=ORIENTED_EDGE('',*,*,#282,.F.);
#275=ORIENTED_EDGE('',*,*,#317,.F.);
#276=CARTESIAN_POINT('',(-163.275,0.0,0.0));
#277=DIRECTION('',(1.0,0.0,0.0));
#278=DIRECTION('',(0.0,-1.0,0.0));
#279=SURFACE_STYLE_FILL_AREA(#319);
#280=FILL_AREA_STYLE('',(#320));
#281=EDGE_CURVE('',#321,#322,#323,.T.);
#282=EDGE_CURVE('',#321,#322,#324,.T.);
#283=EDGE_CURVE('',#325,#326,#327,.T.);
#284=EDGE_CURVE('',#325,#326,#328,.T.);
#285=FILL_AREA_STYLE('',(#329));
#286=EDGE_CURVE('',#330,#331,#332,.T.);
#287=EDGE_CURVE('',#326,#331,#333,.T.);
#288=EDGE_CURVE('',#325,#330,#334,.T.);
#289=FILL_AREA_STYLE('',(#335));
#290=EDGE_CURVE('',#330,#331,#336,.T.);
#291=FILL_AREA_STYLE('',(#337));
#292=EDGE_CURVE('',#338,#339,#340,.T.);
#293=EDGE_CURVE('',#338,#339,#341,.T.);
#294=FILL_AREA_STYLE('',(#342));
#295=EDGE_CURVE('',#343,#344,#345,.T.);
#296=EDGE_CURVE('',#339,#344,#346,.T.);
#297=EDGE_CURVE('',#338,#343,#347,.T.);
#298=FILL_AREA_STYLE('',(#348));
#299=EDGE_CURVE('',#343,#344,#349,.T.);
#300=FILL_AREA_STYLE('',(#350));
#301=EDGE_CURVE('',#344,#351,#352,.T.);
#302=EDGE_CURVE('',#353,#351,#354,.T.);
#303=EDGE_CURVE('',#343,#353,#355,.T.);
#304=FILL_AREA_STYLE('',(#356));
#305=EDGE_CURVE('',#353,#351,#357,.T.);
#306=FILL_AREA_STYLE('',(#358));
#307=EDGE_CURVE('',#359,#360,#361,.T.);
#308=EDGE_CURVE('',#351,#360,#362,.T.);
#309=EDGE_CURVE('',#353,#359,#363,.T.);
#310=FILL_AREA_STYLE('',(#364));
#311=EDGE_CURVE('',#359,#360,#365,.T.);
#312=FILL_AREA_STYLE('',(#366));
#313=EDGE_CURVE('',#367,#368,#369,.T.);
#314=EDGE_CURVE('',#367,#368,#370,.T.);
#315=FILL_AREA_STYLE('',(#371));
#316=EDGE_CURVE('',#368,#322,#372,.T.);
#317=EDGE_CURVE('',#367,#321,#373,.T.);
#318=FILL_AREA_STYLE('',(#374));
#319=FILL_AREA_STYLE('',(#375));
#320=FILL_AREA_STYLE_COLOUR('',#376);
#321=VERTEX_POINT('',#377);
#322=VERTEX_POINT('',#378);
#323=CIRCLE('',#379,75.0);
#324=CIRCLE('',#380,75.0);
#325=VERTEX_POINT('',#381);
#326=VERTEX_POINT('',#382);
#327=CIRCLE('',#383,45.0);
#328=CIRCLE('',#384,45.0);
#329=FILL_AREA_STYLE_COLOUR('',#385);
#330=VERTEX_POINT('',#386);
#331=VERTEX_POINT('',#387);
#332=CIRCLE('',#388,45.0);
#333=LINE('',#389,#390);
#334=LINE('',#391,#392);
#335=FILL_AREA_STYLE_COLOUR('',#393);
#336=CIRCLE('',#394,45.0);
#337=FILL_AREA_STYLE_COLOUR('',#395);
#338=VERTEX_POINT('',#396);
#339=VERTEX_POINT('',#397);
#340=CIRCLE('',#398,55.0);
#341=CIRCLE('',#399,55.0);
#342=FILL_AREA_STYLE_COLOUR('',#400);
#343=VERTEX_POINT('',#401);
#344=VERTEX_POINT('',#402);
#345=CIRCLE('',#403,54.9999999999999);
#346=LINE('',#404,#405);
#347=LINE('',#406,#407);
#348=FILL_AREA_STYLE_COLOUR('',#408);
#349=CIRCLE('',#409,54.9999999999999);
#350=FILL_AREA_STYLE_COLOUR('',#410);
#351=VERTEX_POINT('',#411);
#352=LINE('',#412,#413);
#353=VERTEX_POINT('',#414);
#354=CIRCLE('',#415,62.5);
#355=LINE('',#416,#417);
#356=FILL_AREA_STYLE_COLOUR('',#418);
#357=CIRCLE('',#419,62.5);
#358=FILL_AREA_STYLE_COLOUR('',#420);
#359=VERTEX_POINT('',#421);
#360=VERTEX_POINT('',#422);
#361=CIRCLE('',#423,62.5);
#362=LINE('',#424,#425);
#363=LINE('',#426,#427);
#364=FILL_AREA_STYLE_COLOUR('',#428);
#365=CIRCLE('',#429,62.5);
#366=FILL_AREA_STYLE_COLOUR('',#430);
#367=VERTEX_POINT('',#431);
#368=VERTEX_POINT('',#432);
#369=CIRCLE('',#433,75.0);
#370=CIRCLE('',#434,75.0);
#371=FILL_AREA_STYLE_COLOUR('',#435);
#372=LINE('',#436,#437);
#373=LINE('',#438,#439);
#374=FILL_AREA_STYLE_COLOUR('',#440);
#375=FILL_AREA_STYLE_COLOUR('',#441);
#376=COLOUR_RGB('',0.0784313753247261,0.0901960805058479,0.109803922474384);
#377=CARTESIAN_POINT('',(-155.5,75.0,6.12323399573677E-015));
#378=CARTESIAN_POINT('',(-155.5,-75.0,-6.12323399573677E-015));
#379=AXIS2_PLACEMENT_3D('',#442,#443,#444);
#380=AXIS2_PLACEMENT_3D('',#445,#446,#447);
#381=CARTESIAN_POINT('',(-155.5,45.0,3.67394039744206E-015));
#382=CARTESIAN_POINT('',(-155.5,-45.0,-3.67394039744206E-015));
#383=AXIS2_PLACEMENT_3D('',#448,#449,#450);
#384=AXIS2_PLACEMENT_3D('',#451,#452,#453);
#385=COLOUR_RGB('',0.0784313753247261,0.0901960805058479,0.109803922474384);
#386=CARTESIAN_POINT('',(0.0,45.0,3.67394039744206E-015));
#387=CARTESIAN_POINT('',(0.0,-45.0,-3.67394039744206E-015));
#388=AXIS2_PLACEMENT_3D('',#454,#455,#456);
#389=CARTESIAN_POINT('',(-155.5,-45.0,-3.67394039744206E-015));
#390=VECTOR('',#457,155.5);
#391=CARTESIAN_POINT('',(-155.5,45.0,3.67394039744206E-015));
#392=VECTOR('',#458,155.5);
#393=COLOUR_RGB('',0.0784313753247261,0.0901960805058479,0.109803922474384);
#394=AXIS2_PLACEMENT_3D('',#459,#460,#461);
#395=COLOUR_RGB('',0.0784313753247261,0.0901960805058479,0.109803922474384);
#396=CARTESIAN_POINT('',(0.0,55.0,4.49037159687363E-015));
#397=CARTESIAN_POINT('',(0.0,-55.0,-4.49037159687363E-015));
#398=AXIS2_PLACEMENT_3D('',#462,#463,#464);
#399=AXIS2_PLACEMENT_3D('',#465,#466,#467);
#400=COLOUR_RGB('',0.0784313753247261,0.0901960805058479,0.109803922474384);
#401=CARTESIAN_POINT('',(-115.0,55.0,6.73555739531044E-015));
#402=CARTESIAN_POINT('',(-115.0,-55.0,-6.73555739531044E-015));
#403=AXIS2_PLACEMENT_3D('',#468,#469,#470);
#404=CARTESIAN_POINT('',(0.0,-55.0,-4.49037159687363E-015));
#405=VECTOR('',#471,115.0);
#406=CARTESIAN_POINT('',(0.0,55.0,4.49037159687363E-015));
#407=VECTOR('',#472,115.0);
#408=COLOUR_RGB('',0.0784313753247261,0.0901960805058479,0.109803922474384);
#409=AXIS2_PLACEMENT_3D('',#473,#474,#475);
#410=COLOUR_RGB('',0.0784313753247261,0.0901960805058479,0.109803922474384);
#411=CARTESIAN_POINT('',(-141.0,-62.5,-7.65404249467096E-015));
#412=CARTESIAN_POINT('',(-115.0,-55.0,-6.73555739531044E-015));
#413=VECTOR('',#476,27.0601182554696);
#414=CARTESIAN_POINT('',(-141.0,62.5,7.65404249467096E-015));
#415=AXIS2_PLACEMENT_3D('',#477,#478,#479);
#416=CARTESIAN_POINT('',(-115.0,55.0,6.73555739531044E-015));
#417=VECTOR('',#480,27.0601182554696);
#418=COLOUR_RGB('',0.0784313753247261,0.0901960805058479,0.109803922474384);
#419=AXIS2_PLACEMENT_3D('',#481,#482,#483);
#420=COLOUR_RGB('',0.0784313753247261,0.0901960805058479,0.109803922474384);
#421=CARTESIAN_POINT('',(-142.0,62.5,5.1026949964473E-015));
#422=CARTESIAN_POINT('',(-142.0,-62.5,-5.1026949964473E-015));
#423=AXIS2_PLACEMENT_3D('',#484,#485,#486);
#424=CARTESIAN_POINT('',(-141.0,-62.5,-7.65404249467096E-015));
#425=VECTOR('',#487,1.0);
#426=CARTESIAN_POINT('',(-141.0,62.5,7.65404249467096E-015));
#427=VECTOR('',#488,1.0);
#428=COLOUR_RGB('',0.0784313753247261,0.0901960805058479,0.109803922474384);
#429=AXIS2_PLACEMENT_3D('',#489,#490,#491);
#430=COLOUR_RGB('',0.0784313753247261,0.0901960805058479,0.109803922474384);
#431=CARTESIAN_POINT('',(-142.0,75.0,6.12323399573677E-015));
#432=CARTESIAN_POINT('',(-142.0,-75.0,-6.12323399573677E-015));
#433=AXIS2_PLACEMENT_3D('',#492,#493,#494);
#434=AXIS2_PLACEMENT_3D('',#495,#496,#497);
#435=COLOUR_RGB('',0.0784313753247261,0.0901960805058479,0.109803922474384);
#436=CARTESIAN_POINT('',(-142.0,-75.0,-6.12323399573677E-015));
#437=VECTOR('',#498,13.5);
#438=CARTESIAN_POINT('',(-142.0,75.0,6.12323399573677E-015));
#439=VECTOR('',#499,13.5);
#440=COLOUR_RGB('',0.0784313753247261,0.0901960805058479,0.109803922474384);
#441=COLOUR_RGB('',0.0784313753247261,0.0901960805058479,0.109803922474384);
#442=CARTESIAN_POINT('',(-155.5,0.0,0.0));
#443=DIRECTION('',(1.0,0.0,0.0));
#444=DIRECTION('',(0.0,1.0,0.0));
#445=CARTESIAN_POINT('',(-155.5,0.0,0.0));
#446=DIRECTION('',(-1.0,0.0,0.0));
#447=DIRECTION('',(0.0,1.0,0.0));
#448=CARTESIAN_POINT('',(-155.5,0.0,0.0));
#449=DIRECTION('',(-1.0,0.0,0.0));
#450=DIRECTION('',(0.0,1.0,0.0));
#451=CARTESIAN_POINT('',(-155.5,0.0,0.0));
#452=DIRECTION('',(1.0,0.0,0.0));
#453=DIRECTION('',(0.0,1.0,0.0));
#454=CARTESIAN_POINT('',(-1.98951966012828E-013,0.0,0.0));
#455=DIRECTION('',(1.0,0.0,0.0));
#456=DIRECTION('',(0.0,1.0,0.0));
#457=DIRECTION('',(1.0,0.0,0.0));
#458=DIRECTION('',(1.0,0.0,0.0));
#459=CARTESIAN_POINT('',(-1.98951966012828E-013,0.0,0.0));
#460=DIRECTION('',(-1.0,0.0,0.0));
#461=DIRECTION('',(0.0,1.0,0.0));
#462=CARTESIAN_POINT('',(-1.98951966012828E-013,0.0,0.0));
#463=DIRECTION('',(-1.0,0.0,0.0));
#464=DIRECTION('',(0.0,1.0,0.0));
#465=CARTESIAN_POINT('',(-1.98951966012828E-013,0.0,0.0));
#466=DIRECTION('',(1.0,0.0,0.0));
#467=DIRECTION('',(0.0,1.0,0.0));
#468=CARTESIAN_POINT('',(-115.0,0.0,0.0));
#469=DIRECTION('',(1.0,0.0,-0.0));
#470=DIRECTION('',(0.0,1.0,1.22464679914735E-016));
#471=DIRECTION('',(-1.0,-6.17863248487044E-017,-1.95233547690158E-017));
#472=DIRECTION('',(-1.0,6.17863248487044E-017,1.95233547690158E-017));
#473=CARTESIAN_POINT('',(-115.0,0.0,0.0));
#474=DIRECTION('',(-1.0,0.0,0.0));
#475=DIRECTION('',(0.0,1.0,1.22464679914735E-016));
#476=DIRECTION('',(-0.960823591180894,-0.277160651302181,-3.39423904466812E-017));
#477=CARTESIAN_POINT('',(-141.0,0.0,0.0));
#478=DIRECTION('',(-1.0,0.0,0.0));
#479=DIRECTION('',(0.0,1.0,1.22464679914735E-016));
#480=DIRECTION('',(-0.960823591180894,0.277160651302181,3.39423904466812E-017));
#481=CARTESIAN_POINT('',(-141.0,0.0,0.0));
#482=DIRECTION('',(1.0,0.0,-0.0));
#483=DIRECTION('',(0.0,1.0,1.22464679914735E-016));
#484=CARTESIAN_POINT('',(-142.0,0.0,0.0));
#485=DIRECTION('',(1.0,0.0,0.0));
#486=DIRECTION('',(0.0,1.0,0.0));
#487=DIRECTION('',(-1.0,0.0,2.55134749822364E-015));
#488=DIRECTION('',(-1.0,0.0,-2.55134749822364E-015));
#489=CARTESIAN_POINT('',(-142.0,0.0,0.0));
#490=DIRECTION('',(-1.0,0.0,0.0));
#491=DIRECTION('',(0.0,1.0,0.0));
#492=CARTESIAN_POINT('',(-142.0,0.0,0.0));
#493=DIRECTION('',(-1.0,0.0,0.0));
#494=DIRECTION('',(0.0,1.0,0.0));
#495=CARTESIAN_POINT('',(-142.0,0.0,0.0));
#496=DIRECTION('',(1.0,0.0,0.0));
#497=DIRECTION('',(0.0,1.0,0.0));
#498=DIRECTION('',(-1.0,0.0,0.0));
#499=DIRECTION('',(-1.0,0.0,0.0));
ENDSEC;
END-ISO-10303-21;
