ISO-10303-21;
HEADER;
/* Generated by software containing ST-Developer
 * from STEP Tools, Inc. (www.steptools.com) 
 */

FILE_DESCRIPTION(
/* description */ ('PVC Reducer Short, Ø200-Ø160, PN16'),
/* implementation_level */ '2;1');

FILE_NAME(
/* name */ 
'RB90U-200-160',
/* time_stamp */ '2022-05-02T11:45:06+02:00',
/* author */ ('COAB Solutions'),
/* organization */ ('GPA Flowsystem'),
/* preprocessor_version */ 'ST-DEVELOPER v18.1',
/* originating_system */ 'www.coabsolutions.com',
/* authorisation */ '');

FILE_SCHEMA (('AUTOMOTIVE_DESIGN { 1 0 10303 214 3 1 1 }'));
ENDSEC;

DATA;
#10=MECHANICAL_DESIGN_GEOMETRIC_PRESENTATION_REPRESENTATION('',(#13),#368);
#11=SHAPE_REPRESENTATION_RELATIONSHIP('SRR','None',#375,#12);
#12=ADVANCED_BREP_SHAPE_REPRESENTATION('',(#14),#367);
#13=STYLED_ITEM('',(#384),#14);
#14=MANIFOLD_SOLID_BREP('Solid1',#193);
#15=CONICAL_SURFACE('',#230,90.,0.735439767675508);
#16=CONICAL_SURFACE('',#242,85.4166666666667,0.735439767675505);
#17=FACE_BOUND('',#60,.T.);
#18=FACE_BOUND('',#63,.T.);
#19=FACE_BOUND('',#68,.T.);
#20=FACE_BOUND('',#71,.T.);
#21=PLANE('',#221);
#22=PLANE('',#226);
#23=PLANE('',#234);
#24=PLANE('',#238);
#25=LINE('',#323,#32);
#26=LINE('',#339,#33);
#27=LINE('',#344,#34);
#28=LINE('',#348,#35);
#29=LINE('',#354,#36);
#30=LINE('',#361,#37);
#31=LINE('',#364,#38);
#32=VECTOR('',#257,100.);
#33=VECTOR('',#278,93.3333333333333);
#34=VECTOR('',#285,90.);
#35=VECTOR('',#290,86.6666666666667);
#36=VECTOR('',#297,80.);
#37=VECTOR('',#306,77.5);
#38=VECTOR('',#311,85.4166666666667);
#39=CYLINDRICAL_SURFACE('',#218,100.);
#40=CYLINDRICAL_SURFACE('',#228,93.3333333333333);
#41=CYLINDRICAL_SURFACE('',#232,86.6666666666667);
#42=CYLINDRICAL_SURFACE('',#236,80.);
#43=CYLINDRICAL_SURFACE('',#240,77.5);
#44=FACE_OUTER_BOUND('',#57,.T.);
#45=FACE_OUTER_BOUND('',#58,.T.);
#46=FACE_OUTER_BOUND('',#59,.T.);
#47=FACE_OUTER_BOUND('',#61,.T.);
#48=FACE_OUTER_BOUND('',#62,.T.);
#49=FACE_OUTER_BOUND('',#64,.T.);
#50=FACE_OUTER_BOUND('',#65,.T.);
#51=FACE_OUTER_BOUND('',#66,.T.);
#52=FACE_OUTER_BOUND('',#67,.T.);
#53=FACE_OUTER_BOUND('',#69,.T.);
#54=FACE_OUTER_BOUND('',#70,.T.);
#55=FACE_OUTER_BOUND('',#72,.T.);
#56=FACE_OUTER_BOUND('',#73,.T.);
#57=EDGE_LOOP('',(#130,#131,#132,#133,#134));
#58=EDGE_LOOP('',(#135,#136,#137,#138,#139,#140));
#59=EDGE_LOOP('',(#141));
#60=EDGE_LOOP('',(#142));
#61=EDGE_LOOP('',(#143,#144,#145,#146,#147));
#62=EDGE_LOOP('',(#148));
#63=EDGE_LOOP('',(#149));
#64=EDGE_LOOP('',(#150,#151,#152,#153));
#65=EDGE_LOOP('',(#154,#155,#156,#157));
#66=EDGE_LOOP('',(#158,#159,#160,#161));
#67=EDGE_LOOP('',(#162));
#68=EDGE_LOOP('',(#163));
#69=EDGE_LOOP('',(#164,#165,#166,#167));
#70=EDGE_LOOP('',(#168));
#71=EDGE_LOOP('',(#169));
#72=EDGE_LOOP('',(#170,#171,#172,#173));
#73=EDGE_LOOP('',(#174,#175,#176,#177));
#74=CIRCLE('',#214,99.5);
#75=CIRCLE('',#215,0.5);
#76=CIRCLE('',#216,100.);
#77=CIRCLE('',#217,100.);
#78=CIRCLE('',#219,100.);
#79=CIRCLE('',#220,100.);
#80=CIRCLE('',#222,93.3333333333333);
#81=CIRCLE('',#224,0.5);
#82=CIRCLE('',#225,99.5);
#83=CIRCLE('',#227,93.3333333333333);
#84=CIRCLE('',#229,93.3333333333333);
#85=CIRCLE('',#231,86.6666666666667);
#86=CIRCLE('',#233,86.6666666666667);
#87=CIRCLE('',#235,80.);
#88=CIRCLE('',#237,80.);
#89=CIRCLE('',#239,77.5);
#90=CIRCLE('',#241,77.5);
#91=VERTEX_POINT('',#314);
#92=VERTEX_POINT('',#316);
#93=VERTEX_POINT('',#318);
#94=VERTEX_POINT('',#322);
#95=VERTEX_POINT('',#324);
#96=VERTEX_POINT('',#328);
#97=VERTEX_POINT('',#331);
#98=VERTEX_POINT('',#335);
#99=VERTEX_POINT('',#338);
#100=VERTEX_POINT('',#342);
#101=VERTEX_POINT('',#346);
#102=VERTEX_POINT('',#350);
#103=VERTEX_POINT('',#353);
#104=VERTEX_POINT('',#357);
#105=VERTEX_POINT('',#360);
#106=EDGE_CURVE('',#91,#91,#74,.T.);
#107=EDGE_CURVE('',#91,#92,#75,.T.);
#108=EDGE_CURVE('',#92,#93,#76,.T.);
#109=EDGE_CURVE('',#93,#92,#77,.T.);
#110=EDGE_CURVE('',#93,#94,#25,.T.);
#111=EDGE_CURVE('',#95,#94,#78,.T.);
#112=EDGE_CURVE('',#94,#95,#79,.T.);
#113=EDGE_CURVE('',#96,#96,#80,.T.);
#114=EDGE_CURVE('',#95,#97,#81,.T.);
#115=EDGE_CURVE('',#97,#97,#82,.T.);
#116=EDGE_CURVE('',#98,#98,#83,.T.);
#117=EDGE_CURVE('',#96,#99,#26,.T.);
#118=EDGE_CURVE('',#99,#99,#84,.T.);
#119=EDGE_CURVE('',#100,#100,#85,.T.);
#120=EDGE_CURVE('',#100,#99,#27,.T.);
#121=EDGE_CURVE('',#101,#101,#86,.T.);
#122=EDGE_CURVE('',#101,#100,#28,.T.);
#123=EDGE_CURVE('',#102,#102,#87,.T.);
#124=EDGE_CURVE('',#102,#103,#29,.T.);
#125=EDGE_CURVE('',#103,#103,#88,.T.);
#126=EDGE_CURVE('',#104,#104,#89,.T.);
#127=EDGE_CURVE('',#104,#105,#30,.T.);
#128=EDGE_CURVE('',#105,#105,#90,.T.);
#129=EDGE_CURVE('',#105,#98,#31,.T.);
#130=ORIENTED_EDGE('',*,*,#106,.T.);
#131=ORIENTED_EDGE('',*,*,#107,.T.);
#132=ORIENTED_EDGE('',*,*,#108,.T.);
#133=ORIENTED_EDGE('',*,*,#109,.T.);
#134=ORIENTED_EDGE('',*,*,#107,.F.);
#135=ORIENTED_EDGE('',*,*,#109,.F.);
#136=ORIENTED_EDGE('',*,*,#110,.T.);
#137=ORIENTED_EDGE('',*,*,#111,.F.);
#138=ORIENTED_EDGE('',*,*,#112,.F.);
#139=ORIENTED_EDGE('',*,*,#110,.F.);
#140=ORIENTED_EDGE('',*,*,#108,.F.);
#141=ORIENTED_EDGE('',*,*,#106,.F.);
#142=ORIENTED_EDGE('',*,*,#113,.F.);
#143=ORIENTED_EDGE('',*,*,#111,.T.);
#144=ORIENTED_EDGE('',*,*,#112,.T.);
#145=ORIENTED_EDGE('',*,*,#114,.T.);
#146=ORIENTED_EDGE('',*,*,#115,.T.);
#147=ORIENTED_EDGE('',*,*,#114,.F.);
#148=ORIENTED_EDGE('',*,*,#115,.F.);
#149=ORIENTED_EDGE('',*,*,#116,.T.);
#150=ORIENTED_EDGE('',*,*,#113,.T.);
#151=ORIENTED_EDGE('',*,*,#117,.T.);
#152=ORIENTED_EDGE('',*,*,#118,.F.);
#153=ORIENTED_EDGE('',*,*,#117,.F.);
#154=ORIENTED_EDGE('',*,*,#119,.F.);
#155=ORIENTED_EDGE('',*,*,#120,.T.);
#156=ORIENTED_EDGE('',*,*,#118,.T.);
#157=ORIENTED_EDGE('',*,*,#120,.F.);
#158=ORIENTED_EDGE('',*,*,#121,.F.);
#159=ORIENTED_EDGE('',*,*,#122,.T.);
#160=ORIENTED_EDGE('',*,*,#119,.T.);
#161=ORIENTED_EDGE('',*,*,#122,.F.);
#162=ORIENTED_EDGE('',*,*,#121,.T.);
#163=ORIENTED_EDGE('',*,*,#123,.F.);
#164=ORIENTED_EDGE('',*,*,#123,.T.);
#165=ORIENTED_EDGE('',*,*,#124,.T.);
#166=ORIENTED_EDGE('',*,*,#125,.F.);
#167=ORIENTED_EDGE('',*,*,#124,.F.);
#168=ORIENTED_EDGE('',*,*,#125,.T.);
#169=ORIENTED_EDGE('',*,*,#126,.F.);
#170=ORIENTED_EDGE('',*,*,#126,.T.);
#171=ORIENTED_EDGE('',*,*,#127,.T.);
#172=ORIENTED_EDGE('',*,*,#128,.F.);
#173=ORIENTED_EDGE('',*,*,#127,.F.);
#174=ORIENTED_EDGE('',*,*,#128,.T.);
#175=ORIENTED_EDGE('',*,*,#129,.T.);
#176=ORIENTED_EDGE('',*,*,#116,.F.);
#177=ORIENTED_EDGE('',*,*,#129,.F.);
#178=TOROIDAL_SURFACE('',#213,99.5,0.5);
#179=TOROIDAL_SURFACE('',#223,99.5,0.5);
#180=ADVANCED_FACE('',(#44),#178,.T.);
#181=ADVANCED_FACE('',(#45),#39,.T.);
#182=ADVANCED_FACE('',(#46,#17),#21,.T.);
#183=ADVANCED_FACE('',(#47),#179,.T.);
#184=ADVANCED_FACE('',(#48,#18),#22,.T.);
#185=ADVANCED_FACE('',(#49),#40,.F.);
#186=ADVANCED_FACE('',(#50),#15,.T.);
#187=ADVANCED_FACE('',(#51),#41,.T.);
#188=ADVANCED_FACE('',(#52,#19),#23,.T.);
#189=ADVANCED_FACE('',(#53),#42,.F.);
#190=ADVANCED_FACE('',(#54,#20),#24,.T.);
#191=ADVANCED_FACE('',(#55),#43,.F.);
#192=ADVANCED_FACE('',(#56),#16,.F.);
#193=CLOSED_SHELL('',(#180,#181,#182,#183,#184,#185,#186,#187,#188,#189,
#190,#191,#192));
#194=DERIVED_UNIT_ELEMENT(#196,1.);
#195=DERIVED_UNIT_ELEMENT(#370,-3.);
#196=(
MASS_UNIT()
NAMED_UNIT(*)
SI_UNIT($,.GRAM.)
);
#197=DERIVED_UNIT((#194,#195));
#198=MEASURE_REPRESENTATION_ITEM('density measure',
POSITIVE_RATIO_MEASURE(1.),#197);
#199=PROPERTY_DEFINITION_REPRESENTATION(#204,#201);
#200=PROPERTY_DEFINITION_REPRESENTATION(#205,#202);
#201=REPRESENTATION('material name',(#203),#367);
#202=REPRESENTATION('density',(#198),#367);
#203=DESCRIPTIVE_REPRESENTATION_ITEM('PVC','PVC');
#204=PROPERTY_DEFINITION('material property','material name',#377);
#205=PROPERTY_DEFINITION('material property','density of part',#377);
#206=DATE_TIME_ROLE('creation_date');
#207=APPLIED_DATE_AND_TIME_ASSIGNMENT(#208,#206,(#377));
#208=DATE_AND_TIME(#209,#210);
#209=CALENDAR_DATE(2021,5,8);
#210=LOCAL_TIME(0,0,0.,#211);
#211=COORDINATED_UNIVERSAL_TIME_OFFSET(0,0,.BEHIND.);
#212=AXIS2_PLACEMENT_3D('placement',#312,#243,#244);
#213=AXIS2_PLACEMENT_3D('',#313,#245,#246);
#214=AXIS2_PLACEMENT_3D('',#315,#247,#248);
#215=AXIS2_PLACEMENT_3D('',#317,#249,#250);
#216=AXIS2_PLACEMENT_3D('',#319,#251,#252);
#217=AXIS2_PLACEMENT_3D('',#320,#253,#254);
#218=AXIS2_PLACEMENT_3D('',#321,#255,#256);
#219=AXIS2_PLACEMENT_3D('',#325,#258,#259);
#220=AXIS2_PLACEMENT_3D('',#326,#260,#261);
#221=AXIS2_PLACEMENT_3D('',#327,#262,#263);
#222=AXIS2_PLACEMENT_3D('',#329,#264,#265);
#223=AXIS2_PLACEMENT_3D('',#330,#266,#267);
#224=AXIS2_PLACEMENT_3D('',#332,#268,#269);
#225=AXIS2_PLACEMENT_3D('',#333,#270,#271);
#226=AXIS2_PLACEMENT_3D('',#334,#272,#273);
#227=AXIS2_PLACEMENT_3D('',#336,#274,#275);
#228=AXIS2_PLACEMENT_3D('',#337,#276,#277);
#229=AXIS2_PLACEMENT_3D('',#340,#279,#280);
#230=AXIS2_PLACEMENT_3D('',#341,#281,#282);
#231=AXIS2_PLACEMENT_3D('',#343,#283,#284);
#232=AXIS2_PLACEMENT_3D('',#345,#286,#287);
#233=AXIS2_PLACEMENT_3D('',#347,#288,#289);
#234=AXIS2_PLACEMENT_3D('',#349,#291,#292);
#235=AXIS2_PLACEMENT_3D('',#351,#293,#294);
#236=AXIS2_PLACEMENT_3D('',#352,#295,#296);
#237=AXIS2_PLACEMENT_3D('',#355,#298,#299);
#238=AXIS2_PLACEMENT_3D('',#356,#300,#301);
#239=AXIS2_PLACEMENT_3D('',#358,#302,#303);
#240=AXIS2_PLACEMENT_3D('',#359,#304,#305);
#241=AXIS2_PLACEMENT_3D('',#362,#307,#308);
#242=AXIS2_PLACEMENT_3D('',#363,#309,#310);
#243=DIRECTION('axis',(0.,0.,1.));
#244=DIRECTION('refdir',(1.,0.,0.));
#245=DIRECTION('center_axis',(1.,0.,0.));
#246=DIRECTION('ref_axis',(0.,0.,-1.));
#247=DIRECTION('center_axis',(-1.,0.,0.));
#248=DIRECTION('ref_axis',(0.,-1.,1.83697019872103E-16));
#249=DIRECTION('center_axis',(0.,-1.,-1.22464679914735E-16));
#250=DIRECTION('ref_axis',(0.,-1.22464679914735E-16,1.));
#251=DIRECTION('center_axis',(1.,0.,0.));
#252=DIRECTION('ref_axis',(0.,-1.,1.83697019872103E-16));
#253=DIRECTION('center_axis',(1.,0.,0.));
#254=DIRECTION('ref_axis',(0.,-1.,1.83697019872103E-16));
#255=DIRECTION('center_axis',(1.,0.,0.));
#256=DIRECTION('ref_axis',(0.,1.,0.));
#257=DIRECTION('',(-1.,0.,0.));
#258=DIRECTION('center_axis',(-1.,0.,0.));
#259=DIRECTION('ref_axis',(0.,-1.,1.83697019872103E-16));
#260=DIRECTION('center_axis',(-1.,0.,0.));
#261=DIRECTION('ref_axis',(0.,-1.,1.83697019872103E-16));
#262=DIRECTION('center_axis',(1.,0.,0.));
#263=DIRECTION('ref_axis',(0.,0.,-1.));
#264=DIRECTION('center_axis',(1.,0.,0.));
#265=DIRECTION('ref_axis',(0.,0.,-1.));
#266=DIRECTION('center_axis',(1.,0.,0.));
#267=DIRECTION('ref_axis',(0.,0.,-1.));
#268=DIRECTION('center_axis',(0.,-1.,-1.22464679914735E-16));
#269=DIRECTION('ref_axis',(0.,-1.22464679914735E-16,1.));
#270=DIRECTION('center_axis',(1.,0.,0.));
#271=DIRECTION('ref_axis',(0.,-1.,1.83697019872103E-16));
#272=DIRECTION('center_axis',(-1.,0.,0.));
#273=DIRECTION('ref_axis',(0.,0.,1.));
#274=DIRECTION('center_axis',(1.,0.,0.));
#275=DIRECTION('ref_axis',(0.,0.,-1.));
#276=DIRECTION('center_axis',(1.,0.,0.));
#277=DIRECTION('ref_axis',(0.,1.,0.));
#278=DIRECTION('',(-1.,0.,0.));
#279=DIRECTION('center_axis',(1.,0.,0.));
#280=DIRECTION('ref_axis',(0.,0.,-1.));
#281=DIRECTION('center_axis',(-1.,0.,0.));
#282=DIRECTION('ref_axis',(0.,1.,0.));
#283=DIRECTION('center_axis',(1.,0.,0.));
#284=DIRECTION('ref_axis',(0.,0.,-1.));
#285=DIRECTION('',(-0.74153577912377,-0.670913323969128,-8.21631854704104E-17));
#286=DIRECTION('center_axis',(1.,0.,0.));
#287=DIRECTION('ref_axis',(0.,1.,0.));
#288=DIRECTION('center_axis',(1.,0.,0.));
#289=DIRECTION('ref_axis',(0.,0.,-1.));
#290=DIRECTION('',(-1.,0.,0.));
#291=DIRECTION('center_axis',(1.,0.,0.));
#292=DIRECTION('ref_axis',(0.,0.,-1.));
#293=DIRECTION('center_axis',(1.,0.,0.));
#294=DIRECTION('ref_axis',(0.,0.,-1.));
#295=DIRECTION('center_axis',(1.,0.,0.));
#296=DIRECTION('ref_axis',(0.,1.,0.));
#297=DIRECTION('',(-1.,0.,0.));
#298=DIRECTION('center_axis',(1.,0.,0.));
#299=DIRECTION('ref_axis',(0.,0.,-1.));
#300=DIRECTION('center_axis',(1.,0.,0.));
#301=DIRECTION('ref_axis',(0.,0.,-1.));
#302=DIRECTION('center_axis',(1.,0.,0.));
#303=DIRECTION('ref_axis',(0.,0.,-1.));
#304=DIRECTION('center_axis',(1.,0.,0.));
#305=DIRECTION('ref_axis',(0.,1.,0.));
#306=DIRECTION('',(-1.,0.,0.));
#307=DIRECTION('center_axis',(1.,0.,0.));
#308=DIRECTION('ref_axis',(0.,0.,-1.));
#309=DIRECTION('center_axis',(-1.,0.,0.));
#310=DIRECTION('ref_axis',(0.,1.,0.));
#311=DIRECTION('',(-0.741535779123771,-0.670913323969126,-8.21631854704101E-17));
#312=CARTESIAN_POINT('',(0.,0.,0.));
#313=CARTESIAN_POINT('Origin',(-0.499999999999998,0.,0.));
#314=CARTESIAN_POINT('',(0.,-1.21852356515162E-14,99.5));
#315=CARTESIAN_POINT('Origin',(0.,0.,0.));
#316=CARTESIAN_POINT('',(-0.499999999999998,-1.22464679914735E-14,100.));
#317=CARTESIAN_POINT('Origin',(-0.499999999999998,-1.21852356515162E-14,
99.5));
#318=CARTESIAN_POINT('',(-0.499999999999989,-100.,-1.22464679914735E-14));
#319=CARTESIAN_POINT('Origin',(-0.499999999999998,0.,0.));
#320=CARTESIAN_POINT('Origin',(-0.499999999999998,0.,0.));
#321=CARTESIAN_POINT('Origin',(-53.,0.,0.));
#322=CARTESIAN_POINT('',(-105.5,-100.,-1.22464679914735E-14));
#323=CARTESIAN_POINT('',(-53.,-100.,-1.22464679914735E-14));
#324=CARTESIAN_POINT('',(-105.5,-1.22464679914735E-14,100.));
#325=CARTESIAN_POINT('Origin',(-105.5,0.,0.));
#326=CARTESIAN_POINT('Origin',(-105.5,0.,0.));
#327=CARTESIAN_POINT('Origin',(0.,93.3333333333333,0.));
#328=CARTESIAN_POINT('',(0.,-93.3333333333333,-1.1430036792042E-14));
#329=CARTESIAN_POINT('Origin',(0.,0.,0.));
#330=CARTESIAN_POINT('Origin',(-105.5,0.,0.));
#331=CARTESIAN_POINT('',(-106.,-1.21852356515162E-14,99.5));
#332=CARTESIAN_POINT('Origin',(-105.5,-1.21852356515162E-14,99.5));
#333=CARTESIAN_POINT('Origin',(-106.,0.,0.));
#334=CARTESIAN_POINT('Origin',(-106.,100.,0.));
#335=CARTESIAN_POINT('',(-106.,-93.3333333333333,-1.1430036792042E-14));
#336=CARTESIAN_POINT('Origin',(-106.,0.,0.));
#337=CARTESIAN_POINT('Origin',(-49.6666666666667,0.,0.));
#338=CARTESIAN_POINT('',(-99.3333333333334,-93.3333333333333,-1.1430036792042E-14));
#339=CARTESIAN_POINT('',(-49.6666666666667,-93.3333333333333,-1.1430036792042E-14));
#340=CARTESIAN_POINT('Origin',(-99.3333333333334,0.,0.));
#341=CARTESIAN_POINT('Origin',(-95.6491228070176,0.,0.));
#342=CARTESIAN_POINT('',(-91.9649122807018,-86.6666666666667,-1.06136055926104E-14));
#343=CARTESIAN_POINT('Origin',(-91.9649122807018,0.,0.));
#344=CARTESIAN_POINT('',(-95.6491228070176,-90.,-1.10218211923262E-14));
#345=CARTESIAN_POINT('Origin',(-45.9824561403509,0.,0.));
#346=CARTESIAN_POINT('',(0.,-86.6666666666667,-1.06136055926104E-14));
#347=CARTESIAN_POINT('Origin',(0.,0.,0.));
#348=CARTESIAN_POINT('',(-45.9824561403509,-86.6666666666667,-1.06136055926104E-14));
#349=CARTESIAN_POINT('Origin',(0.,80.,0.));
#350=CARTESIAN_POINT('',(0.,-80.,-9.79717439317883E-15));
#351=CARTESIAN_POINT('Origin',(0.,0.,0.));
#352=CARTESIAN_POINT('Origin',(-43.,0.,0.));
#353=CARTESIAN_POINT('',(-86.,-80.,-9.79717439317883E-15));
#354=CARTESIAN_POINT('',(-43.,-80.,-9.79717439317883E-15));
#355=CARTESIAN_POINT('Origin',(-86.,0.,0.));
#356=CARTESIAN_POINT('Origin',(-86.,77.5,0.));
#357=CARTESIAN_POINT('',(-86.,-77.5,-9.49101269339199E-15));
#358=CARTESIAN_POINT('Origin',(-86.,0.,0.));
#359=CARTESIAN_POINT('Origin',(-87.25,0.,0.));
#360=CARTESIAN_POINT('',(-88.5,-77.5,-9.49101269339199E-15));
#361=CARTESIAN_POINT('',(-87.25,-77.5,-9.49101269339199E-15));
#362=CARTESIAN_POINT('Origin',(-88.5,0.,0.));
#363=CARTESIAN_POINT('Origin',(-97.25,0.,0.));
#364=CARTESIAN_POINT('',(-97.25,-85.4166666666667,-1.0460524742717E-14));
#365=UNCERTAINTY_MEASURE_WITH_UNIT(LENGTH_MEASURE(0.01),#369,
'DISTANCE_ACCURACY_VALUE',
'Maximum model space distance between geometric entities at asserted c
onnectivities');
#366=UNCERTAINTY_MEASURE_WITH_UNIT(LENGTH_MEASURE(0.01),#369,
'DISTANCE_ACCURACY_VALUE',
'Maximum model space distance between geometric entities at asserted c
onnectivities');
#367=(
GEOMETRIC_REPRESENTATION_CONTEXT(3)
GLOBAL_UNCERTAINTY_ASSIGNED_CONTEXT((#365))
GLOBAL_UNIT_ASSIGNED_CONTEXT((#369,#371,#372))
REPRESENTATION_CONTEXT('','3D')
);
#368=(
GEOMETRIC_REPRESENTATION_CONTEXT(3)
GLOBAL_UNCERTAINTY_ASSIGNED_CONTEXT((#366))
GLOBAL_UNIT_ASSIGNED_CONTEXT((#369,#371,#372))
REPRESENTATION_CONTEXT('','3D')
);
#369=(
LENGTH_UNIT()
NAMED_UNIT(*)
SI_UNIT(.MILLI.,.METRE.)
);
#370=(
LENGTH_UNIT()
NAMED_UNIT(*)
SI_UNIT(.CENTI.,.METRE.)
);
#371=(
NAMED_UNIT(*)
PLANE_ANGLE_UNIT()
SI_UNIT($,.RADIAN.)
);
#372=(
NAMED_UNIT(*)
SI_UNIT($,.STERADIAN.)
SOLID_ANGLE_UNIT()
);
#373=SHAPE_DEFINITION_REPRESENTATION(#374,#375);
#374=PRODUCT_DEFINITION_SHAPE('',$,#377);
#375=SHAPE_REPRESENTATION('',(#212),#367);
#376=PRODUCT_DEFINITION_CONTEXT('part definition',#381,'design');
#377=PRODUCT_DEFINITION('RB90U-200-160','RB90U-200-160',#378,#376);
#378=PRODUCT_DEFINITION_FORMATION('0',$,#383);
#379=PRODUCT_RELATED_PRODUCT_CATEGORY('RB90U-200-160','RB90U-200-160',(#383));
#380=APPLICATION_PROTOCOL_DEFINITION('international standard',
'automotive_design',2009,#381);
#381=APPLICATION_CONTEXT(
'Core Data for Automotive Mechanical Design Process');
#382=PRODUCT_CONTEXT('part definition',#381,'mechanical');
#383=PRODUCT('RB90U-200-160','RB90U-200-160',
'PVC Reducer Short, \X\D8200-\X\D8160, PN10',(#382));
#384=PRESENTATION_STYLE_ASSIGNMENT((#385));
#385=SURFACE_STYLE_USAGE(.BOTH.,#388);
#386=SURFACE_STYLE_RENDERING_WITH_PROPERTIES($,#392,(#387));
#387=SURFACE_STYLE_TRANSPARENT(0.);
#388=SURFACE_SIDE_STYLE('',(#389,#386));
#389=SURFACE_STYLE_FILL_AREA(#390);
#390=FILL_AREA_STYLE('',(#391));
#391=FILL_AREA_STYLE_COLOUR('',#392);
#392=COLOUR_RGB('',0.258823529411765,0.298039215686275,0.337254901960784);
ENDSEC;
END-ISO-10303-21;
