ISO-10303-21;
HEADER;
/* Generated by software containing ST-Developer
 * from STEP Tools, Inc. (www.steptools.com) 
 */

FILE_DESCRIPTION(
/* description */ ('PE100 End Cap with long ends, Ø250, SDR17 PN10'),

/* implementation_level */ '2;1');

FILE_NAME(
/* name */ 
'CEL17-RC-250',
/* time_stamp */ '2022-07-06T16:11:43+02:00',
/* author */ ('COAB Solutions'),
/* organization */ ('GPA Flowsystem'),
/* preprocessor_version */ 'ST-DEVELOPER v18.1',
/* originating_system */ 'www.coabsolutions.com',
/* authorisation */ '');

FILE_SCHEMA (('AUTOMOTIVE_DESIGN { 1 0 10303 214 3 1 1 }'));
ENDSEC;

DATA;
#10=MECHANICAL_DESIGN_GEOMETRIC_PRESENTATION_REPRESENTATION('',(#13),#221);
#11=SHAPE_REPRESENTATION_RELATIONSHIP('SRR','None',#228,#12);
#12=ADVANCED_BREP_SHAPE_REPRESENTATION('',(#14),#220);
#13=STYLED_ITEM('',(#237),#14);
#14=MANIFOLD_SOLID_BREP('Solid2',#87);
#15=B_SPLINE_CURVE_WITH_KNOTS('',2,(#184,#185,#186),.UNSPECIFIED.,.F.,.F.,
(3,3),(1.,2.),.UNSPECIFIED.);
#16=B_SPLINE_CURVE_WITH_KNOTS('',2,(#215,#216,#217),.UNSPECIFIED.,.F.,.F.,
(3,3),(1.,2.),.UNSPECIFIED.);
#17=(
BOUNDED_SURFACE()
B_SPLINE_SURFACE(2,2,((#156,#157,#158,#159,#160,#161,#162,#163,#164),(#165,
#166,#167,#168,#169,#170,#171,#172,#173),(#174,#175,#176,#177,#178,#179,
#180,#181,#182)),.UNSPECIFIED.,.F.,.T.,.F.)
B_SPLINE_SURFACE_WITH_KNOTS((3,3),(3,2,2,2,3),(1.,2.),(0.,1.5707963267949,
3.14159265358979,4.71238898038469,6.28318530717959),.UNSPECIFIED.)
GEOMETRIC_REPRESENTATION_ITEM()
RATIONAL_B_SPLINE_SURFACE(((1.,0.707106781186548,1.,0.707106781186548,1.,
0.707106781186548,1.,0.707106781186548,1.),(1.,0.707106781186548,1.,0.707106781186548,
1.,0.707106781186548,1.,0.707106781186548,1.),(1.,0.707106781186548,1.,
0.707106781186548,1.,0.707106781186548,1.,0.707106781186548,1.)))
REPRESENTATION_ITEM('')
SURFACE()
);
#18=(
BOUNDED_SURFACE()
B_SPLINE_SURFACE(2,2,((#187,#188,#189,#190,#191,#192,#193,#194,#195),(#196,
#197,#198,#199,#200,#201,#202,#203,#204),(#205,#206,#207,#208,#209,#210,
#211,#212,#213)),.UNSPECIFIED.,.F.,.T.,.F.)
B_SPLINE_SURFACE_WITH_KNOTS((3,3),(3,2,2,2,3),(1.,2.),(0.,1.5707963267949,
3.14159265358979,4.71238898038469,6.28318530717959),.UNSPECIFIED.)
GEOMETRIC_REPRESENTATION_ITEM()
RATIONAL_B_SPLINE_SURFACE(((1.,0.707106781186548,1.,0.707106781186548,1.,
0.707106781186548,1.,0.707106781186548,1.),(1.,0.707106781186548,1.,0.707106781186548,
1.,0.707106781186548,1.,0.707106781186548,1.),(1.,0.707106781186548,1.,
0.707106781186548,1.,0.707106781186548,1.,0.707106781186548,1.)))
REPRESENTATION_ITEM('')
SURFACE()
);
#19=FACE_BOUND('',#28,.T.);
#20=PLANE('',#111);
#21=FACE_OUTER_BOUND('',#26,.T.);
#22=FACE_OUTER_BOUND('',#27,.T.);
#23=FACE_OUTER_BOUND('',#29,.T.);
#24=FACE_OUTER_BOUND('',#30,.T.);
#25=FACE_OUTER_BOUND('',#31,.T.);
#26=EDGE_LOOP('',(#60,#61,#62,#63,#64));
#27=EDGE_LOOP('',(#65));
#28=EDGE_LOOP('',(#66));
#29=EDGE_LOOP('',(#67,#68,#69,#70,#71));
#30=EDGE_LOOP('',(#72,#73,#74,#75));
#31=EDGE_LOOP('',(#76,#77,#78,#79));
#32=LINE('',#144,#34);
#33=LINE('',#155,#35);
#34=VECTOR('',#122,110.2);
#35=VECTOR('',#137,125.);
#36=CIRCLE('',#108,110.2);
#37=CIRCLE('',#109,110.2);
#38=CIRCLE('',#110,110.2);
#39=CIRCLE('',#112,125.);
#40=CIRCLE('',#114,125.);
#41=CIRCLE('',#115,125.);
#42=VERTEX_POINT('',#140);
#43=VERTEX_POINT('',#141);
#44=VERTEX_POINT('',#143);
#45=VERTEX_POINT('',#148);
#46=VERTEX_POINT('',#151);
#47=VERTEX_POINT('',#152);
#48=VERTEX_POINT('',#183);
#49=VERTEX_POINT('',#214);
#50=EDGE_CURVE('',#42,#43,#36,.T.);
#51=EDGE_CURVE('',#43,#44,#32,.T.);
#52=EDGE_CURVE('',#44,#44,#37,.T.);
#53=EDGE_CURVE('',#43,#42,#38,.T.);
#54=EDGE_CURVE('',#45,#45,#39,.T.);
#55=EDGE_CURVE('',#46,#47,#40,.T.);
#56=EDGE_CURVE('',#47,#46,#41,.T.);
#57=EDGE_CURVE('',#47,#45,#33,.T.);
#58=EDGE_CURVE('',#48,#46,#15,.T.);
#59=EDGE_CURVE('',#42,#49,#16,.T.);
#60=ORIENTED_EDGE('',*,*,#50,.T.);
#61=ORIENTED_EDGE('',*,*,#51,.T.);
#62=ORIENTED_EDGE('',*,*,#52,.F.);
#63=ORIENTED_EDGE('',*,*,#51,.F.);
#64=ORIENTED_EDGE('',*,*,#53,.T.);
#65=ORIENTED_EDGE('',*,*,#54,.F.);
#66=ORIENTED_EDGE('',*,*,#52,.T.);
#67=ORIENTED_EDGE('',*,*,#55,.F.);
#68=ORIENTED_EDGE('',*,*,#56,.F.);
#69=ORIENTED_EDGE('',*,*,#57,.T.);
#70=ORIENTED_EDGE('',*,*,#54,.T.);
#71=ORIENTED_EDGE('',*,*,#57,.F.);
#72=ORIENTED_EDGE('',*,*,#58,.T.);
#73=ORIENTED_EDGE('',*,*,#55,.T.);
#74=ORIENTED_EDGE('',*,*,#56,.T.);
#75=ORIENTED_EDGE('',*,*,#58,.F.);
#76=ORIENTED_EDGE('',*,*,#59,.T.);
#77=ORIENTED_EDGE('',*,*,#59,.F.);
#78=ORIENTED_EDGE('',*,*,#53,.F.);
#79=ORIENTED_EDGE('',*,*,#50,.F.);
#80=CYLINDRICAL_SURFACE('',#107,110.2);
#81=CYLINDRICAL_SURFACE('',#113,125.);
#82=ADVANCED_FACE('',(#21),#80,.F.);
#83=ADVANCED_FACE('',(#22,#19),#20,.T.);
#84=ADVANCED_FACE('',(#23),#81,.T.);
#85=ADVANCED_FACE('',(#24),#17,.T.);
#86=ADVANCED_FACE('',(#25),#18,.T.);
#87=CLOSED_SHELL('',(#82,#83,#84,#85,#86));
#88=DERIVED_UNIT_ELEMENT(#90,1.);
#89=DERIVED_UNIT_ELEMENT(#223,-3.);
#90=(
MASS_UNIT()
NAMED_UNIT(*)
SI_UNIT($,.GRAM.)
);
#91=DERIVED_UNIT((#88,#89));
#92=MEASURE_REPRESENTATION_ITEM('density measure',
POSITIVE_RATIO_MEASURE(1.),#91);
#93=PROPERTY_DEFINITION_REPRESENTATION(#98,#95);
#94=PROPERTY_DEFINITION_REPRESENTATION(#99,#96);
#95=REPRESENTATION('material name',(#97),#220);
#96=REPRESENTATION('density',(#92),#220);
#97=DESCRIPTIVE_REPRESENTATION_ITEM('PE','PE');
#98=PROPERTY_DEFINITION('material property','material name',#230);
#99=PROPERTY_DEFINITION('material property','density of part',#230);
#100=DATE_TIME_ROLE('creation_date');
#101=APPLIED_DATE_AND_TIME_ASSIGNMENT(#102,#100,(#230));
#102=DATE_AND_TIME(#103,#104);
#103=CALENDAR_DATE(2021,19,10);
#104=LOCAL_TIME(0,0,0.,#105);
#105=COORDINATED_UNIVERSAL_TIME_OFFSET(0,0,.BEHIND.);
#106=AXIS2_PLACEMENT_3D('placement',#138,#116,#117);
#107=AXIS2_PLACEMENT_3D('',#139,#118,#119);
#108=AXIS2_PLACEMENT_3D('',#142,#120,#121);
#109=AXIS2_PLACEMENT_3D('',#145,#123,#124);
#110=AXIS2_PLACEMENT_3D('',#146,#125,#126);
#111=AXIS2_PLACEMENT_3D('',#147,#127,#128);
#112=AXIS2_PLACEMENT_3D('',#149,#129,#130);
#113=AXIS2_PLACEMENT_3D('',#150,#131,#132);
#114=AXIS2_PLACEMENT_3D('',#153,#133,#134);
#115=AXIS2_PLACEMENT_3D('',#154,#135,#136);
#116=DIRECTION('axis',(0.,0.,1.));
#117=DIRECTION('refdir',(1.,0.,0.));
#118=DIRECTION('center_axis',(1.,0.,0.));
#119=DIRECTION('ref_axis',(0.,1.,0.));
#120=DIRECTION('center_axis',(1.,0.,0.));
#121=DIRECTION('ref_axis',(0.,0.,-1.));
#122=DIRECTION('',(-1.,0.,0.));
#123=DIRECTION('center_axis',(1.,0.,0.));
#124=DIRECTION('ref_axis',(0.,0.,-1.));
#125=DIRECTION('center_axis',(1.,0.,0.));
#126=DIRECTION('ref_axis',(0.,0.,-1.));
#127=DIRECTION('center_axis',(-1.,0.,0.));
#128=DIRECTION('ref_axis',(0.,0.,1.));
#129=DIRECTION('center_axis',(1.,0.,0.));
#130=DIRECTION('ref_axis',(0.,0.,-1.));
#131=DIRECTION('center_axis',(1.,0.,0.));
#132=DIRECTION('ref_axis',(0.,1.,0.));
#133=DIRECTION('center_axis',(1.,0.,0.));
#134=DIRECTION('ref_axis',(0.,0.,-1.));
#135=DIRECTION('center_axis',(1.,0.,0.));
#136=DIRECTION('ref_axis',(0.,0.,-1.));
#137=DIRECTION('',(-1.,0.,0.));
#138=CARTESIAN_POINT('',(0.,0.,0.));
#139=CARTESIAN_POINT('Origin',(76.,0.,0.));
#140=CARTESIAN_POINT('',(152.,110.2,0.));
#141=CARTESIAN_POINT('',(152.,-110.2,-1.34956077266038E-14));
#142=CARTESIAN_POINT('Origin',(152.,0.,0.));
#143=CARTESIAN_POINT('',(0.,-110.2,-1.34956077266038E-14));
#144=CARTESIAN_POINT('',(76.,-110.2,-1.34956077266038E-14));
#145=CARTESIAN_POINT('Origin',(0.,0.,0.));
#146=CARTESIAN_POINT('Origin',(152.,0.,0.));
#147=CARTESIAN_POINT('Origin',(-1.22464679914735E-15,125.,0.));
#148=CARTESIAN_POINT('',(0.,-125.,-1.53080849893419E-14));
#149=CARTESIAN_POINT('Origin',(0.,0.,0.));
#150=CARTESIAN_POINT('Origin',(76.,0.,0.));
#151=CARTESIAN_POINT('',(152.,125.,0.));
#152=CARTESIAN_POINT('',(152.,-125.,-1.53080849893419E-14));
#153=CARTESIAN_POINT('Origin',(152.,0.,0.));
#154=CARTESIAN_POINT('Origin',(152.,0.,0.));
#155=CARTESIAN_POINT('',(76.,-125.,-1.53080849893419E-14));
#156=CARTESIAN_POINT('Ctrl Pts',(224.,0.,0.));
#157=CARTESIAN_POINT('Ctrl Pts',(224.,0.,0.));
#158=CARTESIAN_POINT('Ctrl Pts',(224.,0.,0.));
#159=CARTESIAN_POINT('Ctrl Pts',(224.,0.,0.));
#160=CARTESIAN_POINT('Ctrl Pts',(224.,0.,0.));
#161=CARTESIAN_POINT('Ctrl Pts',(224.,0.,0.));
#162=CARTESIAN_POINT('Ctrl Pts',(224.,0.,0.));
#163=CARTESIAN_POINT('Ctrl Pts',(224.,0.,0.));
#164=CARTESIAN_POINT('Ctrl Pts',(224.,0.,0.));
#165=CARTESIAN_POINT('Ctrl Pts',(224.,125.,0.));
#166=CARTESIAN_POINT('Ctrl Pts',(224.,125.,125.));
#167=CARTESIAN_POINT('Ctrl Pts',(224.,0.,125.));
#168=CARTESIAN_POINT('Ctrl Pts',(224.,-125.,125.));
#169=CARTESIAN_POINT('Ctrl Pts',(224.,-125.,0.));
#170=CARTESIAN_POINT('Ctrl Pts',(224.,-125.,-125.));
#171=CARTESIAN_POINT('Ctrl Pts',(224.,0.,-125.));
#172=CARTESIAN_POINT('Ctrl Pts',(224.,125.,-125.));
#173=CARTESIAN_POINT('Ctrl Pts',(224.,125.,0.));
#174=CARTESIAN_POINT('Ctrl Pts',(152.,125.,0.));
#175=CARTESIAN_POINT('Ctrl Pts',(152.,125.,125.));
#176=CARTESIAN_POINT('Ctrl Pts',(152.,0.,125.));
#177=CARTESIAN_POINT('Ctrl Pts',(152.,-125.,125.));
#178=CARTESIAN_POINT('Ctrl Pts',(152.,-125.,0.));
#179=CARTESIAN_POINT('Ctrl Pts',(152.,-125.,-125.));
#180=CARTESIAN_POINT('Ctrl Pts',(152.,0.,-125.));
#181=CARTESIAN_POINT('Ctrl Pts',(152.,125.,-125.));
#182=CARTESIAN_POINT('Ctrl Pts',(152.,125.,0.));
#183=CARTESIAN_POINT('',(224.,0.,0.));
#184=CARTESIAN_POINT('Ctrl Pts',(224.,0.,0.));
#185=CARTESIAN_POINT('Ctrl Pts',(224.,125.,0.));
#186=CARTESIAN_POINT('Ctrl Pts',(152.,125.,0.));
#187=CARTESIAN_POINT('Ctrl Pts',(152.,110.2,0.));
#188=CARTESIAN_POINT('Ctrl Pts',(152.,110.2,110.2));
#189=CARTESIAN_POINT('Ctrl Pts',(152.,0.,110.2));
#190=CARTESIAN_POINT('Ctrl Pts',(152.,-110.2,110.2));
#191=CARTESIAN_POINT('Ctrl Pts',(152.,-110.2,0.));
#192=CARTESIAN_POINT('Ctrl Pts',(152.,-110.2,-110.2));
#193=CARTESIAN_POINT('Ctrl Pts',(152.,0.,-110.2));
#194=CARTESIAN_POINT('Ctrl Pts',(152.,110.2,-110.2));
#195=CARTESIAN_POINT('Ctrl Pts',(152.,110.2,0.));
#196=CARTESIAN_POINT('Ctrl Pts',(209.2,110.2,0.));
#197=CARTESIAN_POINT('Ctrl Pts',(209.2,110.2,110.2));
#198=CARTESIAN_POINT('Ctrl Pts',(209.2,0.,110.2));
#199=CARTESIAN_POINT('Ctrl Pts',(209.2,-110.2,110.2));
#200=CARTESIAN_POINT('Ctrl Pts',(209.2,-110.2,0.));
#201=CARTESIAN_POINT('Ctrl Pts',(209.2,-110.2,-110.2));
#202=CARTESIAN_POINT('Ctrl Pts',(209.2,0.,-110.2));
#203=CARTESIAN_POINT('Ctrl Pts',(209.2,110.2,-110.2));
#204=CARTESIAN_POINT('Ctrl Pts',(209.2,110.2,0.));
#205=CARTESIAN_POINT('Ctrl Pts',(209.2,0.,0.));
#206=CARTESIAN_POINT('Ctrl Pts',(209.2,0.,0.));
#207=CARTESIAN_POINT('Ctrl Pts',(209.2,0.,0.));
#208=CARTESIAN_POINT('Ctrl Pts',(209.2,0.,0.));
#209=CARTESIAN_POINT('Ctrl Pts',(209.2,0.,0.));
#210=CARTESIAN_POINT('Ctrl Pts',(209.2,0.,0.));
#211=CARTESIAN_POINT('Ctrl Pts',(209.2,0.,0.));
#212=CARTESIAN_POINT('Ctrl Pts',(209.2,0.,0.));
#213=CARTESIAN_POINT('Ctrl Pts',(209.2,0.,0.));
#214=CARTESIAN_POINT('',(209.2,0.,0.));
#215=CARTESIAN_POINT('Ctrl Pts',(152.,110.2,0.));
#216=CARTESIAN_POINT('Ctrl Pts',(209.2,110.2,0.));
#217=CARTESIAN_POINT('Ctrl Pts',(209.2,0.,0.));
#218=UNCERTAINTY_MEASURE_WITH_UNIT(LENGTH_MEASURE(0.01),#222,
'DISTANCE_ACCURACY_VALUE',
'Maximum model space distance between geometric entities at asserted c
onnectivities');
#219=UNCERTAINTY_MEASURE_WITH_UNIT(LENGTH_MEASURE(0.01),#222,
'DISTANCE_ACCURACY_VALUE',
'Maximum model space distance between geometric entities at asserted c
onnectivities');
#220=(
GEOMETRIC_REPRESENTATION_CONTEXT(3)
GLOBAL_UNCERTAINTY_ASSIGNED_CONTEXT((#218))
GLOBAL_UNIT_ASSIGNED_CONTEXT((#222,#224,#225))
REPRESENTATION_CONTEXT('','3D')
);
#221=(
GEOMETRIC_REPRESENTATION_CONTEXT(3)
GLOBAL_UNCERTAINTY_ASSIGNED_CONTEXT((#219))
GLOBAL_UNIT_ASSIGNED_CONTEXT((#222,#224,#225))
REPRESENTATION_CONTEXT('','3D')
);
#222=(
LENGTH_UNIT()
NAMED_UNIT(*)
SI_UNIT(.MILLI.,.METRE.)
);
#223=(
LENGTH_UNIT()
NAMED_UNIT(*)
SI_UNIT(.CENTI.,.METRE.)
);
#224=(
NAMED_UNIT(*)
PLANE_ANGLE_UNIT()
SI_UNIT($,.RADIAN.)
);
#225=(
NAMED_UNIT(*)
SI_UNIT($,.STERADIAN.)
SOLID_ANGLE_UNIT()
);
#226=SHAPE_DEFINITION_REPRESENTATION(#227,#228);
#227=PRODUCT_DEFINITION_SHAPE('',$,#230);
#228=SHAPE_REPRESENTATION('',(#106),#220);
#229=PRODUCT_DEFINITION_CONTEXT('part definition',#234,'design');
#230=PRODUCT_DEFINITION('CEL17-RC-250','CEL17-RC-250',#231,#229);
#231=PRODUCT_DEFINITION_FORMATION('0',$,#236);
#232=PRODUCT_RELATED_PRODUCT_CATEGORY('CEL17-RC-250','CEL17-RC-250',(#236));
#233=APPLICATION_PROTOCOL_DEFINITION('international standard',
'automotive_design',2009,#234);
#234=APPLICATION_CONTEXT(
'Core Data for Automotive Mechanical Design Process');
#235=PRODUCT_CONTEXT('part definition',#234,'mechanical');
#236=PRODUCT('CEL17-RC-250','CEL17-RC-250',
'PE100 End Cap with long ends, \X\D8250, SDR17 PN10',(#235));
#237=PRESENTATION_STYLE_ASSIGNMENT((#238));
#238=SURFACE_STYLE_USAGE(.BOTH.,#241);
#239=SURFACE_STYLE_RENDERING_WITH_PROPERTIES($,#245,(#240));
#240=SURFACE_STYLE_TRANSPARENT(0.);
#241=SURFACE_SIDE_STYLE('',(#242,#239));
#242=SURFACE_STYLE_FILL_AREA(#243);
#243=FILL_AREA_STYLE('',(#244));
#244=FILL_AREA_STYLE_COLOUR('',#245);
#245=COLOUR_RGB('',0.109803921568627,0.109803921568627,0.129411764705882);
ENDSEC;
END-ISO-10303-21;
