ISO-10303-21;
HEADER;
/* Generated by software containing ST-Developer
 * from STEP Tools, Inc. (www.steptools.com) 
 */

FILE_DESCRIPTION(
/* description */ ('PE100 Tee with short ends, Ø180, SDR11 PN16'),
/* implementation_level */ '2;1');

FILE_NAME(
/* name */ 
'TDE11-RC-180',
/* time_stamp */ '2022-04-05T16:17:54+02:00',
/* author */ ('COAB Solutions'),
/* organization */ ('GPA Flowsystem'),
/* preprocessor_version */ 'ST-DEVELOPER v18.1',
/* originating_system */ 'www.coabsolutions.com',
/* authorisation */ '');

FILE_SCHEMA (('AUTOMOTIVE_DESIGN { 1 0 10303 214 3 1 1 }'));
ENDSEC;

DATA;
#10=MECHANICAL_DESIGN_GEOMETRIC_PRESENTATION_REPRESENTATION('',(#13),#435);
#11=SHAPE_REPRESENTATION_RELATIONSHIP('SRR','None',#442,#12);
#12=ADVANCED_BREP_SHAPE_REPRESENTATION('',(#14),#434);
#13=STYLED_ITEM('',(#451),#14);
#14=MANIFOLD_SOLID_BREP('Solid2',#233);
#15=CONICAL_SURFACE('',#263,94.5,0.785398163397447);
#16=CONICAL_SURFACE('',#276,94.5,0.785398163397448);
#17=CONICAL_SURFACE('',#285,94.5,0.785398163397447);
#18=FACE_BOUND('',#39,.T.);
#19=FACE_BOUND('',#48,.T.);
#20=FACE_BOUND('',#50,.T.);
#21=PLANE('',#259);
#22=PLANE('',#280);
#23=PLANE('',#281);
#24=FACE_OUTER_BOUND('',#37,.T.);
#25=FACE_OUTER_BOUND('',#38,.T.);
#26=FACE_OUTER_BOUND('',#40,.T.);
#27=FACE_OUTER_BOUND('',#41,.T.);
#28=FACE_OUTER_BOUND('',#42,.T.);
#29=FACE_OUTER_BOUND('',#43,.T.);
#30=FACE_OUTER_BOUND('',#44,.T.);
#31=FACE_OUTER_BOUND('',#45,.T.);
#32=FACE_OUTER_BOUND('',#46,.T.);
#33=FACE_OUTER_BOUND('',#47,.T.);
#34=FACE_OUTER_BOUND('',#49,.T.);
#35=FACE_OUTER_BOUND('',#51,.T.);
#36=FACE_OUTER_BOUND('',#52,.T.);
#37=EDGE_LOOP('',(#149,#150,#151,#152,#153,#154,#155));
#38=EDGE_LOOP('',(#156));
#39=EDGE_LOOP('',(#157));
#40=EDGE_LOOP('',(#158,#159,#160,#161));
#41=EDGE_LOOP('',(#162,#163,#164,#165));
#42=EDGE_LOOP('',(#166,#167,#168,#169,#170,#171,#172));
#43=EDGE_LOOP('',(#173,#174,#175,#176,#177,#178,#179,#180,#181,#182));
#44=EDGE_LOOP('',(#183,#184,#185,#186,#187,#188,#189,#190,#191,#192));
#45=EDGE_LOOP('',(#193,#194,#195,#196));
#46=EDGE_LOOP('',(#197,#198,#199,#200));
#47=EDGE_LOOP('',(#201));
#48=EDGE_LOOP('',(#202));
#49=EDGE_LOOP('',(#203));
#50=EDGE_LOOP('',(#204));
#51=EDGE_LOOP('',(#205,#206,#207,#208));
#52=EDGE_LOOP('',(#209,#210,#211,#212));
#53=ELLIPSE('',#255,104.08611819066,73.6);
#54=ELLIPSE('',#256,104.08611819066,73.6);
#55=ELLIPSE('',#257,104.08611819066,73.6);
#56=ELLIPSE('',#258,104.08611819066,73.6);
#57=ELLIPSE('',#266,140.007142674936,99.);
#58=ELLIPSE('',#267,140.007142674936,99.);
#59=ELLIPSE('',#268,140.007142674936,99.);
#60=ELLIPSE('',#269,140.007142674936,99.);
#61=LINE('',#371,#73);
#62=LINE('',#385,#74);
#63=LINE('',#389,#75);
#64=LINE('',#399,#76);
#65=LINE('',#403,#77);
#66=LINE('',#405,#78);
#67=LINE('',#410,#79);
#68=LINE('',#412,#80);
#69=LINE('',#417,#81);
#70=LINE('',#421,#82);
#71=LINE('',#429,#83);
#72=LINE('',#431,#84);
#73=VECTOR('',#292,73.6);
#74=VECTOR('',#309,90.);
#75=VECTOR('',#314,94.5);
#76=VECTOR('',#325,99.);
#77=VECTOR('',#330,99.);
#78=VECTOR('',#331,99.);
#79=VECTOR('',#338,73.6);
#80=VECTOR('',#339,73.6);
#81=VECTOR('',#346,94.5);
#82=VECTOR('',#351,90.);
#83=VECTOR('',#362,90.);
#84=VECTOR('',#365,94.5);
#85=CIRCLE('',#254,73.6);
#86=CIRCLE('',#260,90.);
#87=CIRCLE('',#262,90.);
#88=CIRCLE('',#264,99.);
#89=CIRCLE('',#271,99.);
#90=CIRCLE('',#272,99.);
#91=CIRCLE('',#274,73.6);
#92=CIRCLE('',#275,73.6);
#93=CIRCLE('',#277,90.);
#94=CIRCLE('',#279,90.);
#95=CIRCLE('',#282,90.);
#96=CIRCLE('',#284,90.);
#97=VERTEX_POINT('',#368);
#98=VERTEX_POINT('',#370);
#99=VERTEX_POINT('',#372);
#100=VERTEX_POINT('',#374);
#101=VERTEX_POINT('',#376);
#102=VERTEX_POINT('',#380);
#103=VERTEX_POINT('',#383);
#104=VERTEX_POINT('',#387);
#105=VERTEX_POINT('',#391);
#106=VERTEX_POINT('',#392);
#107=VERTEX_POINT('',#394);
#108=VERTEX_POINT('',#396);
#109=VERTEX_POINT('',#401);
#110=VERTEX_POINT('',#404);
#111=VERTEX_POINT('',#408);
#112=VERTEX_POINT('',#411);
#113=VERTEX_POINT('',#415);
#114=VERTEX_POINT('',#419);
#115=VERTEX_POINT('',#424);
#116=VERTEX_POINT('',#427);
#117=EDGE_CURVE('',#97,#97,#85,.T.);
#118=EDGE_CURVE('',#97,#98,#61,.T.);
#119=EDGE_CURVE('',#99,#98,#53,.T.);
#120=EDGE_CURVE('',#100,#99,#54,.T.);
#121=EDGE_CURVE('',#101,#100,#55,.T.);
#122=EDGE_CURVE('',#98,#101,#56,.T.);
#123=EDGE_CURVE('',#102,#102,#86,.T.);
#124=EDGE_CURVE('',#103,#103,#87,.T.);
#125=EDGE_CURVE('',#103,#102,#62,.T.);
#126=EDGE_CURVE('',#104,#104,#88,.T.);
#127=EDGE_CURVE('',#104,#103,#63,.T.);
#128=EDGE_CURVE('',#105,#106,#57,.T.);
#129=EDGE_CURVE('',#107,#105,#58,.T.);
#130=EDGE_CURVE('',#108,#107,#59,.T.);
#131=EDGE_CURVE('',#106,#108,#60,.T.);
#132=EDGE_CURVE('',#106,#104,#64,.T.);
#133=EDGE_CURVE('',#109,#109,#89,.T.);
#134=EDGE_CURVE('',#109,#106,#65,.T.);
#135=EDGE_CURVE('',#107,#110,#66,.T.);
#136=EDGE_CURVE('',#110,#110,#90,.T.);
#137=EDGE_CURVE('',#111,#111,#91,.T.);
#138=EDGE_CURVE('',#111,#100,#67,.T.);
#139=EDGE_CURVE('',#98,#112,#68,.T.);
#140=EDGE_CURVE('',#112,#112,#92,.T.);
#141=EDGE_CURVE('',#113,#113,#93,.T.);
#142=EDGE_CURVE('',#113,#109,#69,.T.);
#143=EDGE_CURVE('',#114,#114,#94,.T.);
#144=EDGE_CURVE('',#114,#113,#70,.T.);
#145=EDGE_CURVE('',#115,#115,#95,.T.);
#146=EDGE_CURVE('',#116,#116,#96,.T.);
#147=EDGE_CURVE('',#116,#115,#71,.T.);
#148=EDGE_CURVE('',#110,#116,#72,.T.);
#149=ORIENTED_EDGE('',*,*,#117,.F.);
#150=ORIENTED_EDGE('',*,*,#118,.T.);
#151=ORIENTED_EDGE('',*,*,#119,.F.);
#152=ORIENTED_EDGE('',*,*,#120,.F.);
#153=ORIENTED_EDGE('',*,*,#121,.F.);
#154=ORIENTED_EDGE('',*,*,#122,.F.);
#155=ORIENTED_EDGE('',*,*,#118,.F.);
#156=ORIENTED_EDGE('',*,*,#123,.F.);
#157=ORIENTED_EDGE('',*,*,#117,.T.);
#158=ORIENTED_EDGE('',*,*,#124,.F.);
#159=ORIENTED_EDGE('',*,*,#125,.T.);
#160=ORIENTED_EDGE('',*,*,#123,.T.);
#161=ORIENTED_EDGE('',*,*,#125,.F.);
#162=ORIENTED_EDGE('',*,*,#126,.F.);
#163=ORIENTED_EDGE('',*,*,#127,.T.);
#164=ORIENTED_EDGE('',*,*,#124,.T.);
#165=ORIENTED_EDGE('',*,*,#127,.F.);
#166=ORIENTED_EDGE('',*,*,#128,.F.);
#167=ORIENTED_EDGE('',*,*,#129,.F.);
#168=ORIENTED_EDGE('',*,*,#130,.F.);
#169=ORIENTED_EDGE('',*,*,#131,.F.);
#170=ORIENTED_EDGE('',*,*,#132,.T.);
#171=ORIENTED_EDGE('',*,*,#126,.T.);
#172=ORIENTED_EDGE('',*,*,#132,.F.);
#173=ORIENTED_EDGE('',*,*,#133,.F.);
#174=ORIENTED_EDGE('',*,*,#134,.T.);
#175=ORIENTED_EDGE('',*,*,#131,.T.);
#176=ORIENTED_EDGE('',*,*,#130,.T.);
#177=ORIENTED_EDGE('',*,*,#135,.T.);
#178=ORIENTED_EDGE('',*,*,#136,.T.);
#179=ORIENTED_EDGE('',*,*,#135,.F.);
#180=ORIENTED_EDGE('',*,*,#129,.T.);
#181=ORIENTED_EDGE('',*,*,#128,.T.);
#182=ORIENTED_EDGE('',*,*,#134,.F.);
#183=ORIENTED_EDGE('',*,*,#137,.T.);
#184=ORIENTED_EDGE('',*,*,#138,.T.);
#185=ORIENTED_EDGE('',*,*,#120,.T.);
#186=ORIENTED_EDGE('',*,*,#119,.T.);
#187=ORIENTED_EDGE('',*,*,#139,.T.);
#188=ORIENTED_EDGE('',*,*,#140,.F.);
#189=ORIENTED_EDGE('',*,*,#139,.F.);
#190=ORIENTED_EDGE('',*,*,#122,.T.);
#191=ORIENTED_EDGE('',*,*,#121,.T.);
#192=ORIENTED_EDGE('',*,*,#138,.F.);
#193=ORIENTED_EDGE('',*,*,#141,.F.);
#194=ORIENTED_EDGE('',*,*,#142,.T.);
#195=ORIENTED_EDGE('',*,*,#133,.T.);
#196=ORIENTED_EDGE('',*,*,#142,.F.);
#197=ORIENTED_EDGE('',*,*,#143,.F.);
#198=ORIENTED_EDGE('',*,*,#144,.T.);
#199=ORIENTED_EDGE('',*,*,#141,.T.);
#200=ORIENTED_EDGE('',*,*,#144,.F.);
#201=ORIENTED_EDGE('',*,*,#143,.T.);
#202=ORIENTED_EDGE('',*,*,#137,.F.);
#203=ORIENTED_EDGE('',*,*,#145,.F.);
#204=ORIENTED_EDGE('',*,*,#140,.T.);
#205=ORIENTED_EDGE('',*,*,#146,.F.);
#206=ORIENTED_EDGE('',*,*,#147,.T.);
#207=ORIENTED_EDGE('',*,*,#145,.T.);
#208=ORIENTED_EDGE('',*,*,#147,.F.);
#209=ORIENTED_EDGE('',*,*,#136,.F.);
#210=ORIENTED_EDGE('',*,*,#148,.T.);
#211=ORIENTED_EDGE('',*,*,#146,.T.);
#212=ORIENTED_EDGE('',*,*,#148,.F.);
#213=CYLINDRICAL_SURFACE('',#253,73.6);
#214=CYLINDRICAL_SURFACE('',#261,90.);
#215=CYLINDRICAL_SURFACE('',#265,99.);
#216=CYLINDRICAL_SURFACE('',#270,99.);
#217=CYLINDRICAL_SURFACE('',#273,73.6);
#218=CYLINDRICAL_SURFACE('',#278,90.);
#219=CYLINDRICAL_SURFACE('',#283,90.);
#220=ADVANCED_FACE('',(#24),#213,.F.);
#221=ADVANCED_FACE('',(#25,#18),#21,.T.);
#222=ADVANCED_FACE('',(#26),#214,.T.);
#223=ADVANCED_FACE('',(#27),#15,.T.);
#224=ADVANCED_FACE('',(#28),#215,.T.);
#225=ADVANCED_FACE('',(#29),#216,.T.);
#226=ADVANCED_FACE('',(#30),#217,.F.);
#227=ADVANCED_FACE('',(#31),#16,.T.);
#228=ADVANCED_FACE('',(#32),#218,.T.);
#229=ADVANCED_FACE('',(#33,#19),#22,.T.);
#230=ADVANCED_FACE('',(#34,#20),#23,.T.);
#231=ADVANCED_FACE('',(#35),#219,.T.);
#232=ADVANCED_FACE('',(#36),#17,.T.);
#233=CLOSED_SHELL('',(#220,#221,#222,#223,#224,#225,#226,#227,#228,#229,
#230,#231,#232));
#234=DERIVED_UNIT_ELEMENT(#236,1.);
#235=DERIVED_UNIT_ELEMENT(#437,-3.);
#236=(
MASS_UNIT()
NAMED_UNIT(*)
SI_UNIT($,.GRAM.)
);
#237=DERIVED_UNIT((#234,#235));
#238=MEASURE_REPRESENTATION_ITEM('density measure',
POSITIVE_RATIO_MEASURE(1.),#237);
#239=PROPERTY_DEFINITION_REPRESENTATION(#244,#241);
#240=PROPERTY_DEFINITION_REPRESENTATION(#245,#242);
#241=REPRESENTATION('material name',(#243),#434);
#242=REPRESENTATION('density',(#238),#434);
#243=DESCRIPTIVE_REPRESENTATION_ITEM('PE','PE');
#244=PROPERTY_DEFINITION('material property','material name',#444);
#245=PROPERTY_DEFINITION('material property','density of part',#444);
#246=DATE_TIME_ROLE('creation_date');
#247=APPLIED_DATE_AND_TIME_ASSIGNMENT(#248,#246,(#444));
#248=DATE_AND_TIME(#249,#250);
#249=CALENDAR_DATE(2021,19,10);
#250=LOCAL_TIME(0,0,0.,#251);
#251=COORDINATED_UNIVERSAL_TIME_OFFSET(0,0,.BEHIND.);
#252=AXIS2_PLACEMENT_3D('placement',#366,#286,#287);
#253=AXIS2_PLACEMENT_3D('',#367,#288,#289);
#254=AXIS2_PLACEMENT_3D('',#369,#290,#291);
#255=AXIS2_PLACEMENT_3D('',#373,#293,#294);
#256=AXIS2_PLACEMENT_3D('',#375,#295,#296);
#257=AXIS2_PLACEMENT_3D('',#377,#297,#298);
#258=AXIS2_PLACEMENT_3D('',#378,#299,#300);
#259=AXIS2_PLACEMENT_3D('',#379,#301,#302);
#260=AXIS2_PLACEMENT_3D('',#381,#303,#304);
#261=AXIS2_PLACEMENT_3D('',#382,#305,#306);
#262=AXIS2_PLACEMENT_3D('',#384,#307,#308);
#263=AXIS2_PLACEMENT_3D('',#386,#310,#311);
#264=AXIS2_PLACEMENT_3D('',#388,#312,#313);
#265=AXIS2_PLACEMENT_3D('',#390,#315,#316);
#266=AXIS2_PLACEMENT_3D('',#393,#317,#318);
#267=AXIS2_PLACEMENT_3D('',#395,#319,#320);
#268=AXIS2_PLACEMENT_3D('',#397,#321,#322);
#269=AXIS2_PLACEMENT_3D('',#398,#323,#324);
#270=AXIS2_PLACEMENT_3D('',#400,#326,#327);
#271=AXIS2_PLACEMENT_3D('',#402,#328,#329);
#272=AXIS2_PLACEMENT_3D('',#406,#332,#333);
#273=AXIS2_PLACEMENT_3D('',#407,#334,#335);
#274=AXIS2_PLACEMENT_3D('',#409,#336,#337);
#275=AXIS2_PLACEMENT_3D('',#413,#340,#341);
#276=AXIS2_PLACEMENT_3D('',#414,#342,#343);
#277=AXIS2_PLACEMENT_3D('',#416,#344,#345);
#278=AXIS2_PLACEMENT_3D('',#418,#347,#348);
#279=AXIS2_PLACEMENT_3D('',#420,#349,#350);
#280=AXIS2_PLACEMENT_3D('',#422,#352,#353);
#281=AXIS2_PLACEMENT_3D('',#423,#354,#355);
#282=AXIS2_PLACEMENT_3D('',#425,#356,#357);
#283=AXIS2_PLACEMENT_3D('',#426,#358,#359);
#284=AXIS2_PLACEMENT_3D('',#428,#360,#361);
#285=AXIS2_PLACEMENT_3D('',#430,#363,#364);
#286=DIRECTION('axis',(0.,0.,1.));
#287=DIRECTION('refdir',(1.,0.,0.));
#288=DIRECTION('center_axis',(0.,0.,1.));
#289=DIRECTION('ref_axis',(-1.,0.,0.));
#290=DIRECTION('center_axis',(0.,0.,1.));
#291=DIRECTION('ref_axis',(1.,0.,0.));
#292=DIRECTION('',(0.,0.,1.));
#293=DIRECTION('center_axis',(-0.707106781186548,0.,-0.707106781186548));
#294=DIRECTION('ref_axis',(-0.707106781186548,0.,0.707106781186547));
#295=DIRECTION('center_axis',(0.707106781186548,0.,-0.707106781186548));
#296=DIRECTION('ref_axis',(-0.707106781186548,0.,-0.707106781186547));
#297=DIRECTION('center_axis',(0.707106781186548,0.,-0.707106781186548));
#298=DIRECTION('ref_axis',(-0.707106781186548,0.,-0.707106781186547));
#299=DIRECTION('center_axis',(-0.707106781186548,0.,-0.707106781186548));
#300=DIRECTION('ref_axis',(-0.707106781186548,0.,0.707106781186547));
#301=DIRECTION('center_axis',(0.,0.,-1.));
#302=DIRECTION('ref_axis',(-1.,0.,0.));
#303=DIRECTION('center_axis',(0.,0.,1.));
#304=DIRECTION('ref_axis',(1.,0.,0.));
#305=DIRECTION('center_axis',(0.,0.,1.));
#306=DIRECTION('ref_axis',(1.,0.,0.));
#307=DIRECTION('center_axis',(0.,0.,1.));
#308=DIRECTION('ref_axis',(1.,0.,0.));
#309=DIRECTION('',(0.,0.,-1.));
#310=DIRECTION('center_axis',(0.,0.,1.));
#311=DIRECTION('ref_axis',(1.,0.,0.));
#312=DIRECTION('center_axis',(0.,0.,1.));
#313=DIRECTION('ref_axis',(1.,0.,0.));
#314=DIRECTION('',(0.707106781186547,8.65956056235492E-17,-0.707106781186548));
#315=DIRECTION('center_axis',(0.,0.,1.));
#316=DIRECTION('ref_axis',(1.,0.,0.));
#317=DIRECTION('center_axis',(-0.707106781186547,0.,0.707106781186548));
#318=DIRECTION('ref_axis',(0.707106781186548,0.,0.707106781186547));
#319=DIRECTION('center_axis',(0.707106781186547,0.,0.707106781186548));
#320=DIRECTION('ref_axis',(0.707106781186548,0.,-0.707106781186547));
#321=DIRECTION('center_axis',(0.707106781186547,0.,0.707106781186548));
#322=DIRECTION('ref_axis',(0.707106781186548,0.,-0.707106781186547));
#323=DIRECTION('center_axis',(-0.707106781186547,0.,0.707106781186548));
#324=DIRECTION('ref_axis',(0.707106781186548,0.,0.707106781186547));
#325=DIRECTION('',(0.,0.,-1.));
#326=DIRECTION('center_axis',(-1.,0.,0.));
#327=DIRECTION('ref_axis',(0.,0.,1.));
#328=DIRECTION('center_axis',(-1.,0.,0.));
#329=DIRECTION('ref_axis',(0.,0.,1.));
#330=DIRECTION('',(1.,0.,0.));
#331=DIRECTION('',(1.,0.,0.));
#332=DIRECTION('center_axis',(-1.,0.,0.));
#333=DIRECTION('ref_axis',(0.,0.,1.));
#334=DIRECTION('center_axis',(-1.,0.,0.));
#335=DIRECTION('ref_axis',(0.,0.,1.));
#336=DIRECTION('center_axis',(-1.,0.,0.));
#337=DIRECTION('ref_axis',(0.,0.,1.));
#338=DIRECTION('',(1.,0.,0.));
#339=DIRECTION('',(1.,0.,0.));
#340=DIRECTION('center_axis',(-1.,0.,0.));
#341=DIRECTION('ref_axis',(0.,0.,1.));
#342=DIRECTION('center_axis',(1.,0.,0.));
#343=DIRECTION('ref_axis',(0.,0.,1.));
#344=DIRECTION('center_axis',(-1.,0.,0.));
#345=DIRECTION('ref_axis',(0.,0.,1.));
#346=DIRECTION('',(0.707106781186548,-8.65956056235493E-17,-0.707106781186548));
#347=DIRECTION('center_axis',(-1.,0.,0.));
#348=DIRECTION('ref_axis',(0.,0.,1.));
#349=DIRECTION('center_axis',(-1.,0.,0.));
#350=DIRECTION('ref_axis',(0.,0.,1.));
#351=DIRECTION('',(1.,0.,0.));
#352=DIRECTION('center_axis',(-1.,0.,0.));
#353=DIRECTION('ref_axis',(0.,0.,1.));
#354=DIRECTION('center_axis',(1.,0.,0.));
#355=DIRECTION('ref_axis',(0.,0.,-1.));
#356=DIRECTION('center_axis',(-1.,0.,0.));
#357=DIRECTION('ref_axis',(0.,0.,1.));
#358=DIRECTION('center_axis',(-1.,0.,0.));
#359=DIRECTION('ref_axis',(0.,0.,1.));
#360=DIRECTION('center_axis',(-1.,0.,0.));
#361=DIRECTION('ref_axis',(0.,0.,1.));
#362=DIRECTION('',(1.,0.,0.));
#363=DIRECTION('center_axis',(-1.,0.,0.));
#364=DIRECTION('ref_axis',(0.,0.,1.));
#365=DIRECTION('',(0.707106781186548,8.65956056235492E-17,0.707106781186547));
#366=CARTESIAN_POINT('',(0.,0.,0.));
#367=CARTESIAN_POINT('Origin',(0.,0.,-182.5));
#368=CARTESIAN_POINT('',(73.6,9.01340044172452E-15,-182.5));
#369=CARTESIAN_POINT('Origin',(0.,0.,-182.5));
#370=CARTESIAN_POINT('',(73.6,9.01340044172452E-15,-73.6));
#371=CARTESIAN_POINT('',(73.6,9.01340044172452E-15,-182.5));
#372=CARTESIAN_POINT('',(0.,73.6,0.));
#373=CARTESIAN_POINT('Origin',(0.,0.,0.));
#374=CARTESIAN_POINT('',(-73.6,-9.01340044172452E-15,-73.6));
#375=CARTESIAN_POINT('Origin',(0.,0.,0.));
#376=CARTESIAN_POINT('',(0.,-73.6,0.));
#377=CARTESIAN_POINT('Origin',(0.,0.,0.));
#378=CARTESIAN_POINT('Origin',(0.,0.,0.));
#379=CARTESIAN_POINT('Origin',(90.,0.,-182.5));
#380=CARTESIAN_POINT('',(-90.,-1.10218211923262E-14,-182.5));
#381=CARTESIAN_POINT('Origin',(0.,0.,-182.5));
#382=CARTESIAN_POINT('Origin',(0.,0.,-154.));
#383=CARTESIAN_POINT('',(-90.,-1.10218211923262E-14,-125.5));
#384=CARTESIAN_POINT('Origin',(0.,0.,-125.5));
#385=CARTESIAN_POINT('',(-90.,-1.10218211923262E-14,-154.));
#386=CARTESIAN_POINT('Origin',(0.,0.,-121.));
#387=CARTESIAN_POINT('',(-99.,-1.21240033115588E-14,-116.5));
#388=CARTESIAN_POINT('Origin',(0.,0.,-116.5));
#389=CARTESIAN_POINT('',(-94.5,-1.15729122519425E-14,-121.));
#390=CARTESIAN_POINT('Origin',(0.,0.,-58.25));
#391=CARTESIAN_POINT('',(0.,99.,0.));
#392=CARTESIAN_POINT('',(-99.,-1.21240033115588E-14,-99.));
#393=CARTESIAN_POINT('Origin',(0.,0.,0.));
#394=CARTESIAN_POINT('',(99.,-1.21240033115588E-14,-99.));
#395=CARTESIAN_POINT('Origin',(0.,0.,0.));
#396=CARTESIAN_POINT('',(0.,-99.,0.));
#397=CARTESIAN_POINT('Origin',(0.,0.,0.));
#398=CARTESIAN_POINT('Origin',(0.,0.,0.));
#399=CARTESIAN_POINT('',(-99.,-1.21240033115588E-14,-58.25));
#400=CARTESIAN_POINT('Origin',(-1.77635683940025E-14,0.,0.));
#401=CARTESIAN_POINT('',(-116.5,-1.21240033115588E-14,-99.));
#402=CARTESIAN_POINT('Origin',(-116.5,0.,0.));
#403=CARTESIAN_POINT('',(-1.77635683940025E-14,-1.21240033115588E-14,-99.));
#404=CARTESIAN_POINT('',(116.5,-1.21240033115588E-14,-99.));
#405=CARTESIAN_POINT('',(-1.77635683940025E-14,-1.21240033115588E-14,-99.));
#406=CARTESIAN_POINT('Origin',(116.5,0.,0.));
#407=CARTESIAN_POINT('Origin',(0.,0.,0.));
#408=CARTESIAN_POINT('',(-182.5,-9.01340044172452E-15,-73.6));
#409=CARTESIAN_POINT('Origin',(-182.5,0.,0.));
#410=CARTESIAN_POINT('',(0.,-9.01340044172452E-15,-73.6));
#411=CARTESIAN_POINT('',(182.5,0.,-73.6));
#412=CARTESIAN_POINT('',(0.,-9.01340044172452E-15,-73.6));
#413=CARTESIAN_POINT('Origin',(182.5,0.,0.));
#414=CARTESIAN_POINT('Origin',(-121.,0.,0.));
#415=CARTESIAN_POINT('',(-125.5,-1.10218211923262E-14,-90.));
#416=CARTESIAN_POINT('Origin',(-125.5,0.,0.));
#417=CARTESIAN_POINT('',(-121.,-1.15729122519425E-14,-94.5));
#418=CARTESIAN_POINT('Origin',(-154.,0.,0.));
#419=CARTESIAN_POINT('',(-182.5,-1.10218211923262E-14,-90.));
#420=CARTESIAN_POINT('Origin',(-182.5,0.,0.));
#421=CARTESIAN_POINT('',(-154.,-1.10218211923262E-14,-90.));
#422=CARTESIAN_POINT('Origin',(-182.5,0.,73.6));
#423=CARTESIAN_POINT('Origin',(182.5,0.,90.));
#424=CARTESIAN_POINT('',(182.5,-1.10218211923262E-14,-90.));
#425=CARTESIAN_POINT('Origin',(182.5,0.,0.));
#426=CARTESIAN_POINT('Origin',(154.,0.,0.));
#427=CARTESIAN_POINT('',(125.5,-1.10218211923262E-14,-90.));
#428=CARTESIAN_POINT('Origin',(125.5,0.,0.));
#429=CARTESIAN_POINT('',(154.,-1.10218211923262E-14,-90.));
#430=CARTESIAN_POINT('Origin',(121.,0.,0.));
#431=CARTESIAN_POINT('',(121.,-1.15729122519425E-14,-94.5));
#432=UNCERTAINTY_MEASURE_WITH_UNIT(LENGTH_MEASURE(0.01),#436,
'DISTANCE_ACCURACY_VALUE',
'Maximum model space distance between geometric entities at asserted c
onnectivities');
#433=UNCERTAINTY_MEASURE_WITH_UNIT(LENGTH_MEASURE(0.01),#436,
'DISTANCE_ACCURACY_VALUE',
'Maximum model space distance between geometric entities at asserted c
onnectivities');
#434=(
GEOMETRIC_REPRESENTATION_CONTEXT(3)
GLOBAL_UNCERTAINTY_ASSIGNED_CONTEXT((#432))
GLOBAL_UNIT_ASSIGNED_CONTEXT((#436,#438,#439))
REPRESENTATION_CONTEXT('','3D')
);
#435=(
GEOMETRIC_REPRESENTATION_CONTEXT(3)
GLOBAL_UNCERTAINTY_ASSIGNED_CONTEXT((#433))
GLOBAL_UNIT_ASSIGNED_CONTEXT((#436,#438,#439))
REPRESENTATION_CONTEXT('','3D')
);
#436=(
LENGTH_UNIT()
NAMED_UNIT(*)
SI_UNIT(.MILLI.,.METRE.)
);
#437=(
LENGTH_UNIT()
NAMED_UNIT(*)
SI_UNIT(.CENTI.,.METRE.)
);
#438=(
NAMED_UNIT(*)
PLANE_ANGLE_UNIT()
SI_UNIT($,.RADIAN.)
);
#439=(
NAMED_UNIT(*)
SI_UNIT($,.STERADIAN.)
SOLID_ANGLE_UNIT()
);
#440=SHAPE_DEFINITION_REPRESENTATION(#441,#442);
#441=PRODUCT_DEFINITION_SHAPE('',$,#444);
#442=SHAPE_REPRESENTATION('',(#252),#434);
#443=PRODUCT_DEFINITION_CONTEXT('part definition',#448,'design');
#444=PRODUCT_DEFINITION('TDE11-RC-180','TDE11-RC-180',#445,#443);
#445=PRODUCT_DEFINITION_FORMATION('0',$,#450);
#446=PRODUCT_RELATED_PRODUCT_CATEGORY('TDE11-RC-180','TDE11-RC-180',(#450));
#447=APPLICATION_PROTOCOL_DEFINITION('international standard',
'automotive_design',2009,#448);
#448=APPLICATION_CONTEXT(
'Core Data for Automotive Mechanical Design Process');
#449=PRODUCT_CONTEXT('part definition',#448,'mechanical');
#450=PRODUCT('TDE11-RC-180','TDE11-RC-180',
'PE100 Tee with short ends, \X\D8180, SDR11 PN16',(#449));
#451=PRESENTATION_STYLE_ASSIGNMENT((#452));
#452=SURFACE_STYLE_USAGE(.BOTH.,#455);
#453=SURFACE_STYLE_RENDERING_WITH_PROPERTIES($,#459,(#454));
#454=SURFACE_STYLE_TRANSPARENT(0.);
#455=SURFACE_SIDE_STYLE('',(#456,#453));
#456=SURFACE_STYLE_FILL_AREA(#457);
#457=FILL_AREA_STYLE('',(#458));
#458=FILL_AREA_STYLE_COLOUR('',#459);
#459=COLOUR_RGB('',0.109803921568627,0.109803921568627,0.129411764705882);
ENDSEC;
END-ISO-10303-21;
