ISO-10303-21;
HEADER;
/* Generated by software containing ST-Developer
 * from STEP Tools, Inc. (www.steptools.com) 
 */

FILE_DESCRIPTION(
/* description */ ('PVC Bend 15°, Ø280, PN12,5'),
/* implementation_level */ '2;1');

FILE_NAME(
/* name */ 
'KLIIV280',
/* time_stamp */ '2022-05-11T16:00:54+02:00',
/* author */ ('COAB Solutions'),
/* organization */ ('GPA Flowsystem'),
/* preprocessor_version */ 'ST-DEVELOPER v18.1',
/* originating_system */ 'www.coabsolutions.com',
/* authorisation */ '');

FILE_SCHEMA (('AUTOMOTIVE_DESIGN { 1 0 10303 214 3 1 1 }'));
ENDSEC;

DATA;
#10=MECHANICAL_DESIGN_GEOMETRIC_PRESENTATION_REPRESENTATION('',(#13),#407);
#11=SHAPE_REPRESENTATION_RELATIONSHIP('SRR','None',#414,#12);
#12=ADVANCED_BREP_SHAPE_REPRESENTATION('',(#14),#406);
#13=STYLED_ITEM('',(#423),#14);
#14=MANIFOLD_SOLID_BREP('Solid2',#179);
#15=FACE_BOUND('',#47,.T.);
#16=FACE_BOUND('',#51,.T.);
#17=FACE_BOUND('',#54,.T.);
#18=FACE_BOUND('',#56,.T.);
#19=PLANE('',#210);
#20=PLANE('',#216);
#21=PLANE('',#221);
#22=PLANE('',#222);
#23=CYLINDRICAL_SURFACE('',#205,140.);
#24=CYLINDRICAL_SURFACE('',#208,154.);
#25=CYLINDRICAL_SURFACE('',#211,140.);
#26=CYLINDRICAL_SURFACE('',#214,154.);
#27=TOROIDAL_SURFACE('',#201,881.107477076114,140.);
#28=TOROIDAL_SURFACE('',#217,881.107477076114,126.);
#29=FACE_OUTER_BOUND('',#41,.T.);
#30=FACE_OUTER_BOUND('',#42,.T.);
#31=FACE_OUTER_BOUND('',#43,.T.);
#32=FACE_OUTER_BOUND('',#44,.T.);
#33=FACE_OUTER_BOUND('',#45,.T.);
#34=FACE_OUTER_BOUND('',#46,.T.);
#35=FACE_OUTER_BOUND('',#48,.T.);
#36=FACE_OUTER_BOUND('',#49,.T.);
#37=FACE_OUTER_BOUND('',#50,.T.);
#38=FACE_OUTER_BOUND('',#52,.T.);
#39=FACE_OUTER_BOUND('',#53,.T.);
#40=FACE_OUTER_BOUND('',#55,.T.);
#41=EDGE_LOOP('',(#121,#122,#123,#124,#125));
#42=EDGE_LOOP('',(#126,#127,#128,#129,#130,#131));
#43=EDGE_LOOP('',(#132,#133,#134,#135,#136));
#44=EDGE_LOOP('',(#137,#138,#139,#140));
#45=EDGE_LOOP('',(#141,#142,#143,#144));
#46=EDGE_LOOP('',(#145));
#47=EDGE_LOOP('',(#146));
#48=EDGE_LOOP('',(#147,#148,#149,#150));
#49=EDGE_LOOP('',(#151,#152,#153,#154));
#50=EDGE_LOOP('',(#155));
#51=EDGE_LOOP('',(#156));
#52=EDGE_LOOP('',(#157,#158,#159,#160));
#53=EDGE_LOOP('',(#161));
#54=EDGE_LOOP('',(#162));
#55=EDGE_LOOP('',(#163));
#56=EDGE_LOOP('',(#164));
#57=B_SPLINE_CURVE_WITH_KNOTS('',3,(#286,#287,#288,#289,#290,#291,#292,
#293,#294,#295,#296,#297,#298,#299,#300,#301,#302,#303,#304,#305),
 .UNSPECIFIED.,.F.,.F.,(4,2,2,2,2,2,2,2,2,4),(-88.2333098178926,-85.1367061662667,
-82.0408503647356,-76.5687409166647,-71.0953766935691,-65.6224633434212,
-60.152456121354,-54.6866364069342,-49.2225958113502,-44.1223215380056),
 .UNSPECIFIED.);
#58=B_SPLINE_CURVE_WITH_KNOTS('',3,(#306,#307,#308,#309,#310,#311,#312,
#313,#314,#315,#316,#317,#318,#319,#320,#321,#322,#323,#324,#325),
 .UNSPECIFIED.,.F.,.F.,(4,2,2,2,2,2,2,2,2,4),(-44.1223215380056,-43.7553336787144,
-38.2828693455787,-32.8085296702995,-27.3364344537052,-21.8676880016716,
-16.4010615742013,-10.934935386081,-5.46815210914422,0.),.UNSPECIFIED.);
#59=B_SPLINE_CURVE_WITH_KNOTS('',3,(#330,#331,#332,#333,#334,#335,#336,
#337,#338,#339,#340,#341,#342,#343,#344,#345,#346,#347,#348,#349),
 .UNSPECIFIED.,.F.,.F.,(4,2,2,2,2,2,2,2,2,4),(-44.1195035901047,-43.3538600069929,
-37.7949685243032,-32.2443851214824,-26.6886795632598,-21.3092505876142,
-16.0237045262026,-10.7556297771629,-5.43427782102452,0.),.UNSPECIFIED.);
#60=B_SPLINE_CURVE_WITH_KNOTS('',3,(#350,#351,#352,#353,#354,#355,#356,
#357,#358,#359,#360,#361,#362,#363,#364,#365,#366,#367,#368,#369),
 .UNSPECIFIED.,.F.,.F.,(4,2,2,2,2,2,2,2,2,4),(-88.2306321072725,-84.831510136484,
-81.5137509207456,-75.955280288194,-70.3976580457429,-64.7942274282981,
-59.3577317953244,-54.1053575008012,-48.9283705916811,-44.1195035901047),
 .UNSPECIFIED.);
#61=LINE('',#284,#67);
#62=LINE('',#372,#68);
#63=LINE('',#378,#69);
#64=LINE('',#382,#70);
#65=LINE('',#389,#71);
#66=LINE('',#393,#72);
#67=VECTOR('',#229,146.951341106593);
#68=VECTOR('',#236,146.951341106594);
#69=VECTOR('',#243,140.);
#70=VECTOR('',#248,154.);
#71=VECTOR('',#257,140.);
#72=VECTOR('',#262,154.);
#73=CIRCLE('',#200,154.);
#74=CIRCLE('',#202,741.107477076114);
#75=CIRCLE('',#204,154.);
#76=CIRCLE('',#206,140.);
#77=CIRCLE('',#207,140.);
#78=CIRCLE('',#209,154.);
#79=CIRCLE('',#212,140.);
#80=CIRCLE('',#213,140.);
#81=CIRCLE('',#215,154.);
#82=CIRCLE('',#218,126.);
#83=CIRCLE('',#219,755.107477076114);
#84=CIRCLE('',#220,126.);
#85=VERTEX_POINT('',#281);
#86=VERTEX_POINT('',#283);
#87=VERTEX_POINT('',#285);
#88=VERTEX_POINT('',#327);
#89=VERTEX_POINT('',#329);
#90=VERTEX_POINT('',#371);
#91=VERTEX_POINT('',#375);
#92=VERTEX_POINT('',#377);
#93=VERTEX_POINT('',#381);
#94=VERTEX_POINT('',#386);
#95=VERTEX_POINT('',#388);
#96=VERTEX_POINT('',#392);
#97=VERTEX_POINT('',#397);
#98=VERTEX_POINT('',#399);
#99=EDGE_CURVE('',#85,#85,#73,.T.);
#100=EDGE_CURVE('',#85,#86,#61,.T.);
#101=EDGE_CURVE('',#87,#86,#57,.T.);
#102=EDGE_CURVE('',#86,#87,#58,.T.);
#103=EDGE_CURVE('',#86,#88,#74,.T.);
#104=EDGE_CURVE('',#88,#89,#59,.T.);
#105=EDGE_CURVE('',#89,#88,#60,.T.);
#106=EDGE_CURVE('',#88,#90,#62,.T.);
#107=EDGE_CURVE('',#90,#90,#75,.T.);
#108=EDGE_CURVE('',#91,#91,#76,.T.);
#109=EDGE_CURVE('',#91,#92,#63,.T.);
#110=EDGE_CURVE('',#92,#92,#77,.T.);
#111=EDGE_CURVE('',#85,#93,#64,.T.);
#112=EDGE_CURVE('',#93,#93,#78,.T.);
#113=EDGE_CURVE('',#94,#94,#79,.T.);
#114=EDGE_CURVE('',#94,#95,#65,.T.);
#115=EDGE_CURVE('',#95,#95,#80,.T.);
#116=EDGE_CURVE('',#90,#96,#66,.T.);
#117=EDGE_CURVE('',#96,#96,#81,.T.);
#118=EDGE_CURVE('',#97,#97,#82,.T.);
#119=EDGE_CURVE('',#97,#98,#83,.T.);
#120=EDGE_CURVE('',#98,#98,#84,.T.);
#121=ORIENTED_EDGE('',*,*,#99,.T.);
#122=ORIENTED_EDGE('',*,*,#100,.T.);
#123=ORIENTED_EDGE('',*,*,#101,.F.);
#124=ORIENTED_EDGE('',*,*,#102,.F.);
#125=ORIENTED_EDGE('',*,*,#100,.F.);
#126=ORIENTED_EDGE('',*,*,#101,.T.);
#127=ORIENTED_EDGE('',*,*,#103,.T.);
#128=ORIENTED_EDGE('',*,*,#104,.T.);
#129=ORIENTED_EDGE('',*,*,#105,.T.);
#130=ORIENTED_EDGE('',*,*,#103,.F.);
#131=ORIENTED_EDGE('',*,*,#102,.T.);
#132=ORIENTED_EDGE('',*,*,#105,.F.);
#133=ORIENTED_EDGE('',*,*,#104,.F.);
#134=ORIENTED_EDGE('',*,*,#106,.T.);
#135=ORIENTED_EDGE('',*,*,#107,.T.);
#136=ORIENTED_EDGE('',*,*,#106,.F.);
#137=ORIENTED_EDGE('',*,*,#108,.F.);
#138=ORIENTED_EDGE('',*,*,#109,.T.);
#139=ORIENTED_EDGE('',*,*,#110,.F.);
#140=ORIENTED_EDGE('',*,*,#109,.F.);
#141=ORIENTED_EDGE('',*,*,#99,.F.);
#142=ORIENTED_EDGE('',*,*,#111,.T.);
#143=ORIENTED_EDGE('',*,*,#112,.F.);
#144=ORIENTED_EDGE('',*,*,#111,.F.);
#145=ORIENTED_EDGE('',*,*,#112,.T.);
#146=ORIENTED_EDGE('',*,*,#110,.T.);
#147=ORIENTED_EDGE('',*,*,#113,.T.);
#148=ORIENTED_EDGE('',*,*,#114,.T.);
#149=ORIENTED_EDGE('',*,*,#115,.T.);
#150=ORIENTED_EDGE('',*,*,#114,.F.);
#151=ORIENTED_EDGE('',*,*,#107,.F.);
#152=ORIENTED_EDGE('',*,*,#116,.T.);
#153=ORIENTED_EDGE('',*,*,#117,.T.);
#154=ORIENTED_EDGE('',*,*,#116,.F.);
#155=ORIENTED_EDGE('',*,*,#117,.F.);
#156=ORIENTED_EDGE('',*,*,#115,.F.);
#157=ORIENTED_EDGE('',*,*,#118,.F.);
#158=ORIENTED_EDGE('',*,*,#119,.T.);
#159=ORIENTED_EDGE('',*,*,#120,.T.);
#160=ORIENTED_EDGE('',*,*,#119,.F.);
#161=ORIENTED_EDGE('',*,*,#108,.T.);
#162=ORIENTED_EDGE('',*,*,#118,.T.);
#163=ORIENTED_EDGE('',*,*,#113,.F.);
#164=ORIENTED_EDGE('',*,*,#120,.F.);
#165=CONICAL_SURFACE('',#199,146.951341106593,0.785398163397443);
#166=CONICAL_SURFACE('',#203,146.951341106594,0.785398163397448);
#167=ADVANCED_FACE('',(#29),#165,.T.);
#168=ADVANCED_FACE('',(#30),#27,.T.);
#169=ADVANCED_FACE('',(#31),#166,.T.);
#170=ADVANCED_FACE('',(#32),#23,.F.);
#171=ADVANCED_FACE('',(#33),#24,.T.);
#172=ADVANCED_FACE('',(#34,#15),#19,.T.);
#173=ADVANCED_FACE('',(#35),#25,.F.);
#174=ADVANCED_FACE('',(#36),#26,.T.);
#175=ADVANCED_FACE('',(#37,#16),#20,.F.);
#176=ADVANCED_FACE('',(#38),#28,.F.);
#177=ADVANCED_FACE('',(#39,#17),#21,.T.);
#178=ADVANCED_FACE('',(#40,#18),#22,.F.);
#179=CLOSED_SHELL('',(#167,#168,#169,#170,#171,#172,#173,#174,#175,#176,
#177,#178));
#180=DERIVED_UNIT_ELEMENT(#182,1.);
#181=DERIVED_UNIT_ELEMENT(#409,-3.);
#182=(
MASS_UNIT()
NAMED_UNIT(*)
SI_UNIT($,.GRAM.)
);
#183=DERIVED_UNIT((#180,#181));
#184=MEASURE_REPRESENTATION_ITEM('density measure',
POSITIVE_RATIO_MEASURE(1.),#183);
#185=PROPERTY_DEFINITION_REPRESENTATION(#190,#187);
#186=PROPERTY_DEFINITION_REPRESENTATION(#191,#188);
#187=REPRESENTATION('material name',(#189),#406);
#188=REPRESENTATION('density',(#184),#406);
#189=DESCRIPTIVE_REPRESENTATION_ITEM('PVC','PVC');
#190=PROPERTY_DEFINITION('material property','material name',#416);
#191=PROPERTY_DEFINITION('material property','density of part',#416);
#192=DATE_TIME_ROLE('creation_date');
#193=APPLIED_DATE_AND_TIME_ASSIGNMENT(#194,#192,(#416));
#194=DATE_AND_TIME(#195,#196);
#195=CALENDAR_DATE(2021,19,10);
#196=LOCAL_TIME(0,0,0.,#197);
#197=COORDINATED_UNIVERSAL_TIME_OFFSET(0,0,.BEHIND.);
#198=AXIS2_PLACEMENT_3D('placement',#279,#223,#224);
#199=AXIS2_PLACEMENT_3D('',#280,#225,#226);
#200=AXIS2_PLACEMENT_3D('',#282,#227,#228);
#201=AXIS2_PLACEMENT_3D('',#326,#230,#231);
#202=AXIS2_PLACEMENT_3D('',#328,#232,#233);
#203=AXIS2_PLACEMENT_3D('',#370,#234,#235);
#204=AXIS2_PLACEMENT_3D('',#373,#237,#238);
#205=AXIS2_PLACEMENT_3D('',#374,#239,#240);
#206=AXIS2_PLACEMENT_3D('',#376,#241,#242);
#207=AXIS2_PLACEMENT_3D('',#379,#244,#245);
#208=AXIS2_PLACEMENT_3D('',#380,#246,#247);
#209=AXIS2_PLACEMENT_3D('',#383,#249,#250);
#210=AXIS2_PLACEMENT_3D('',#384,#251,#252);
#211=AXIS2_PLACEMENT_3D('',#385,#253,#254);
#212=AXIS2_PLACEMENT_3D('',#387,#255,#256);
#213=AXIS2_PLACEMENT_3D('',#390,#258,#259);
#214=AXIS2_PLACEMENT_3D('',#391,#260,#261);
#215=AXIS2_PLACEMENT_3D('',#394,#263,#264);
#216=AXIS2_PLACEMENT_3D('',#395,#265,#266);
#217=AXIS2_PLACEMENT_3D('',#396,#267,#268);
#218=AXIS2_PLACEMENT_3D('',#398,#269,#270);
#219=AXIS2_PLACEMENT_3D('',#400,#271,#272);
#220=AXIS2_PLACEMENT_3D('',#401,#273,#274);
#221=AXIS2_PLACEMENT_3D('',#402,#275,#276);
#222=AXIS2_PLACEMENT_3D('',#403,#277,#278);
#223=DIRECTION('axis',(0.,0.,1.));
#224=DIRECTION('refdir',(1.,0.,0.));
#225=DIRECTION('center_axis',(0.258819045102523,0.965925826289068,0.));
#226=DIRECTION('ref_axis',(-0.965925826289068,0.258819045102523,0.));
#227=DIRECTION('center_axis',(-0.258819045102524,-0.965925826289067,0.));
#228=DIRECTION('ref_axis',(-0.965925826289067,0.258819045102524,0.));
#229=DIRECTION('',(-0.866025403784437,-0.500000000000003,8.65956056235488E-17));
#230=DIRECTION('center_axis',(0.,0.,-1.));
#231=DIRECTION('ref_axis',(-1.,0.,0.));
#232=DIRECTION('center_axis',(0.,0.,1.));
#233=DIRECTION('ref_axis',(-1.,0.,0.));
#234=DIRECTION('center_axis',(0.,-1.,0.));
#235=DIRECTION('ref_axis',(-1.,0.,0.));
#236=DIRECTION('',(0.707106781186547,-0.707106781186548,-8.65956056235493E-17));
#237=DIRECTION('center_axis',(0.,1.,0.));
#238=DIRECTION('ref_axis',(-1.,0.,0.));
#239=DIRECTION('center_axis',(-0.258819045102524,-0.965925826289067,0.));
#240=DIRECTION('ref_axis',(0.965925826289067,-0.258819045102524,0.));
#241=DIRECTION('center_axis',(0.258819045102521,0.965925826289068,0.));
#242=DIRECTION('ref_axis',(-0.965925826289068,0.258819045102521,0.));
#243=DIRECTION('',(0.258819045102524,0.965925826289067,0.));
#244=DIRECTION('center_axis',(-0.258819045102524,-0.965925826289067,0.));
#245=DIRECTION('ref_axis',(0.965925826289067,-0.258819045102524,0.));
#246=DIRECTION('center_axis',(-0.258819045102524,-0.965925826289067,0.));
#247=DIRECTION('ref_axis',(-0.965925826289067,0.258819045102524,0.));
#248=DIRECTION('',(0.258819045102524,0.965925826289067,0.));
#249=DIRECTION('center_axis',(0.258819045102524,0.965925826289067,0.));
#250=DIRECTION('ref_axis',(-0.965925826289067,0.258819045102524,0.));
#251=DIRECTION('center_axis',(0.258819045102524,0.965925826289067,0.));
#252=DIRECTION('ref_axis',(0.,0.,1.));
#253=DIRECTION('center_axis',(0.,1.,0.));
#254=DIRECTION('ref_axis',(1.,0.,0.));
#255=DIRECTION('center_axis',(5.97306675496133E-17,1.,0.));
#256=DIRECTION('ref_axis',(-1.,5.97306675496133E-17,0.));
#257=DIRECTION('',(0.,-1.,0.));
#258=DIRECTION('center_axis',(0.,-1.,0.));
#259=DIRECTION('ref_axis',(1.,0.,0.));
#260=DIRECTION('center_axis',(0.,1.,0.));
#261=DIRECTION('ref_axis',(-1.,0.,0.));
#262=DIRECTION('',(0.,-1.,0.));
#263=DIRECTION('center_axis',(0.,1.,0.));
#264=DIRECTION('ref_axis',(-1.,0.,0.));
#265=DIRECTION('center_axis',(0.,1.,0.));
#266=DIRECTION('ref_axis',(0.,0.,1.));
#267=DIRECTION('center_axis',(0.,0.,-1.));
#268=DIRECTION('ref_axis',(-1.,0.,0.));
#269=DIRECTION('center_axis',(-0.258819045102521,-0.965925826289068,0.));
#270=DIRECTION('ref_axis',(0.965925826289068,-0.258819045102521,0.));
#271=DIRECTION('center_axis',(0.,0.,1.));
#272=DIRECTION('ref_axis',(-1.,0.,0.));
#273=DIRECTION('center_axis',(-5.97306675496133E-17,-1.,0.));
#274=DIRECTION('ref_axis',(1.,-5.97306675496133E-17,0.));
#275=DIRECTION('center_axis',(0.258819045102521,0.965925826289068,0.));
#276=DIRECTION('ref_axis',(0.,0.,1.));
#277=DIRECTION('center_axis',(5.97306675496133E-17,1.,0.));
#278=DIRECTION('ref_axis',(0.,0.,1.));
#279=CARTESIAN_POINT('',(0.,0.,0.));
#280=CARTESIAN_POINT('Origin',(28.198682067847,389.238914183688,0.));
#281=CARTESIAN_POINT('',(178.775586480408,356.189262903743,-1.88595607068692E-14));
#282=CARTESIAN_POINT('Origin',(30.0230092318919,396.047395849532,0.));
#283=CARTESIAN_POINT('',(161.788136488974,346.381554078343,-3.07849363604228E-14));
#284=CARTESIAN_POINT('',(170.14277765052,351.205108401945,-1.799634895166E-14));
#285=CARTESIAN_POINT('',(-108.761259013027,418.639911135543,0.));
#286=CARTESIAN_POINT('Ctrl Pts',(-108.761259013027,418.639911135543,0.));
#287=CARTESIAN_POINT('Ctrl Pts',(-108.761259013027,418.639911135543,-10.3220121720863));
#288=CARTESIAN_POINT('Ctrl Pts',(-107.658338911749,418.34510179304,-20.6124184972061));
#289=CARTESIAN_POINT('Ctrl Pts',(-103.287457434872,417.176795851303,-40.7520146443065));
#290=CARTESIAN_POINT('Ctrl Pts',(-100.033395784952,416.307014763394,-50.5396755240936));
#291=CARTESIAN_POINT('Ctrl Pts',(-88.2337085205753,413.153181964774,-76.3561072559388));
#292=CARTESIAN_POINT('Ctrl Pts',(-77.6565476451975,410.326201253021,-91.1618609186115));
#293=CARTESIAN_POINT('Ctrl Pts',(-51.6093680805363,403.365340571155,-115.743250115653));
#294=CARTESIAN_POINT('Ctrl Pts',(-36.3876706736132,399.297835765318,-125.282333154905));
#295=CARTESIAN_POINT('Ctrl Pts',(-3.26845811834942,390.449201713071,-137.779265415959));
#296=CARTESIAN_POINT('Ctrl Pts',(14.3119165490394,385.752821059813,-140.618074874406));
#297=CARTESIAN_POINT('Ctrl Pts',(49.524893431316,376.34785653694,-139.157798336108));
#298=CARTESIAN_POINT('Ctrl Pts',(66.8210373339516,371.729146412001,-134.876453399612));
#299=CARTESIAN_POINT('Ctrl Pts',(98.8422477927098,363.179901933698,-119.698652442809));
#300=CARTESIAN_POINT('Ctrl Pts',(113.263795954269,359.330393161898,-108.952051734476));
#301=CARTESIAN_POINT('Ctrl Pts',(137.314981338812,352.911413156014,-82.3494984675759));
#302=CARTESIAN_POINT('Ctrl Pts',(146.716694525524,350.402740930334,-66.7490150396424));
#303=CARTESIAN_POINT('Ctrl Pts',(158.802530970736,347.178051523745,-33.8311337627523));
#304=CARTESIAN_POINT('Ctrl Pts',(161.788136488974,346.381554078343,-16.9806313137395));
#305=CARTESIAN_POINT('Ctrl Pts',(161.788136488974,346.381554078343,-3.99680288865056E-14));
#306=CARTESIAN_POINT('Ctrl Pts',(161.788136488974,346.381554078343,-5.13478148889135E-14));
#307=CARTESIAN_POINT('Ctrl Pts',(161.788136488974,346.381554078343,1.22183341547169));
#308=CARTESIAN_POINT('Ctrl Pts',(161.772679589844,346.385677836024,2.4443405672825));
#309=CARTESIAN_POINT('Ctrl Pts',(161.279964907212,346.517129652775,21.9024902094567));
#310=CARTESIAN_POINT('Ctrl Pts',(157.378550298568,347.557948820726,39.8695656444084));
#311=CARTESIAN_POINT('Ctrl Pts',(143.134362003036,351.3586262044,73.248170498075));
#312=CARTESIAN_POINT('Ctrl Pts',(132.925942013248,354.082668385028,88.3388578115138));
#313=CARTESIAN_POINT('Ctrl Pts',(107.49658655486,360.869786017703,113.6108079745));
#314=CARTESIAN_POINT('Ctrl Pts',(92.5210212378815,364.867400213335,123.552292334192));
#315=CARTESIAN_POINT('Ctrl Pts',(59.7410534437142,373.619692422074,136.927800395049));
#316=CARTESIAN_POINT('Ctrl Pts',(42.2514211785878,378.290330477114,140.238076036079));
#317=CARTESIAN_POINT('Ctrl Pts',(7.03795624801056,387.6958881638,139.735388772069));
#318=CARTESIAN_POINT('Ctrl Pts',(-10.3497540278718,392.341016158182,135.929983769867));
#319=CARTESIAN_POINT('Ctrl Pts',(-42.7372756322329,400.994495345288,121.639007761238));
#320=CARTESIAN_POINT('Ctrl Pts',(-57.4281294224138,404.920280960271,111.290468929347));
#321=CARTESIAN_POINT('Ctrl Pts',(-82.1550361772415,411.528483683435,85.348000571681));
#322=CARTESIAN_POINT('Ctrl Pts',(-91.9542833441704,414.147602428578,70.0012926044384));
#323=CARTESIAN_POINT('Ctrl Pts',(-105.322092028849,417.720611955911,36.2800297887013));
#324=CARTESIAN_POINT('Ctrl Pts',(-108.761259013027,418.639911135543,18.2271736971474));
#325=CARTESIAN_POINT('Ctrl Pts',(-108.761259013027,418.639911135543,-4.44089209850063E-15));
#326=CARTESIAN_POINT('Origin',(881.107477076114,168.,0.));
#327=CARTESIAN_POINT('',(140.129805163313,181.870194836687,4.13163549553085E-15));
#328=CARTESIAN_POINT('Origin',(881.107477076114,168.,1.71450551880629E-14));
#329=CARTESIAN_POINT('',(-139.902682213187,182.097317786813,0.));
#330=CARTESIAN_POINT('Ctrl Pts',(140.129805163313,181.870194836687,-1.66533453693773E-15));
#331=CARTESIAN_POINT('Ctrl Pts',(140.129805163313,181.870194836687,-2.54618381755734));
#332=CARTESIAN_POINT('Ctrl Pts',(140.060334084949,181.870269960265,-5.09484994730494));
#333=CARTESIAN_POINT('Ctrl Pts',(138.909214063188,181.871513811253,-26.1451723825572));
#334=CARTESIAN_POINT('Ctrl Pts',(134.233664666743,181.876605151524,-44.2632659611622));
#335=CARTESIAN_POINT('Ctrl Pts',(118.111166270257,181.89346989559,-77.6009942037209));
#336=CARTESIAN_POINT('Ctrl Pts',(106.833238809164,181.905032177711,-92.4963909867188));
#337=CARTESIAN_POINT('Ctrl Pts',(79.1271076006963,181.931887748119,-117.050981440827));
#338=CARTESIAN_POINT('Ctrl Pts',(62.9674055140097,181.946891810161,-126.463177998128));
#339=CARTESIAN_POINT('Ctrl Pts',(28.4798564060661,181.97701001617,-138.263783829115));
#340=CARTESIAN_POINT('Ctrl Pts',(10.5557234363298,181.991826744825,-140.756541429665));
#341=CARTESIAN_POINT('Ctrl Pts',(-24.9438382778763,182.0196072844,-138.862265448178));
#342=CARTESIAN_POINT('Ctrl Pts',(-42.203234232385,182.032362994426,-134.611438768282));
#343=CARTESIAN_POINT('Ctrl Pts',(-74.1843905169379,182.055002698347,-119.956837027572));
#344=CARTESIAN_POINT('Ctrl Pts',(-88.6308068617562,182.064708621286,-109.703369565539));
#345=CARTESIAN_POINT('Ctrl Pts',(-113.100515731548,182.08069600262,-84.2633790705065));
#346=CARTESIAN_POINT('Ctrl Pts',(-122.856109667023,182.086807647258,-69.2582775561916));
#347=CARTESIAN_POINT('Ctrl Pts',(-136.386739308545,182.095196983085,-36.0574263039322));
#348=CARTESIAN_POINT('Ctrl Pts',(-139.902682213187,182.097317786813,-18.114259403415));
#349=CARTESIAN_POINT('Ctrl Pts',(-139.902682213187,182.097317786813,1.33226762955019E-14));
#350=CARTESIAN_POINT('Ctrl Pts',(-139.902682213187,182.097317786813,-1.11022302462516E-14));
#351=CARTESIAN_POINT('Ctrl Pts',(-139.902682213187,182.097317786813,11.3304065692951));
#352=CARTESIAN_POINT('Ctrl Pts',(-138.527083049389,182.096483552761,22.6190032252916));
#353=CARTESIAN_POINT('Ctrl Pts',(-133.150280554208,182.093186971782,44.3534100580408));
#354=CARTESIAN_POINT('Ctrl Pts',(-129.231614359996,182.09077520444,54.7365228653067));
#355=CARTESIAN_POINT('Ctrl Pts',(-115.58875832715,182.082233291293,80.9908393229652));
#356=CARTESIAN_POINT('Ctrl Pts',(-103.865822694992,182.074780984675,95.57329384232));
#357=CARTESIAN_POINT('Ctrl Pts',(-75.4259494963275,182.055810966915,119.325161233298));
#358=CARTESIAN_POINT('Ctrl Pts',(-58.9905884919743,182.044466490509,128.260885418436));
#359=CARTESIAN_POINT('Ctrl Pts',(-23.4505233405665,182.018468501628,139.261537493766));
#360=CARTESIAN_POINT('Ctrl Pts',(-4.68144247877035,182.004031325841,141.158879783975));
#361=CARTESIAN_POINT('Ctrl Pts',(31.9394617492853,181.974100803422,137.53370445542));
#362=CARTESIAN_POINT('Ctrl Pts',(49.4563451388901,181.958927389247,132.264764580596));
#363=CARTESIAN_POINT('Ctrl Pts',(80.9653211945172,181.930193180939,115.631726725407));
#364=CARTESIAN_POINT('Ctrl Pts',(94.7791406416621,181.916859897576,104.62661418584));
#365=CARTESIAN_POINT('Ctrl Pts',(117.467707015904,181.894198033865,78.2864309049261));
#366=CARTESIAN_POINT('Ctrl Pts',(126.216193692657,181.885033381763,63.2413419578059));
#367=CARTESIAN_POINT('Ctrl Pts',(137.388990319671,181.873184701405,31.8863037897113));
#368=CARTESIAN_POINT('Ctrl Pts',(140.129805163313,181.870194836687,15.9921138376627));
#369=CARTESIAN_POINT('Ctrl Pts',(140.129805163313,181.870194836687,0.));
#370=CARTESIAN_POINT('Origin',(0.,175.048658893406,0.));
#371=CARTESIAN_POINT('',(154.,168.,-1.88595607068692E-14));
#372=CARTESIAN_POINT('',(146.951341106594,175.048658893406,-1.79963489516601E-14));
#373=CARTESIAN_POINT('Origin',(0.,168.,0.));
#374=CARTESIAN_POINT('Origin',(73.5046088091159,558.322934666095,0.));
#375=CARTESIAN_POINT('',(-105.206606448577,432.282062163885,0.));
#376=CARTESIAN_POINT('Origin',(30.0230092318924,396.047395849532,0.));
#377=CARTESIAN_POINT('',(-61.7250068713535,594.557600980448,1.71450551880629E-14));
#378=CARTESIAN_POINT('',(-61.7250068713535,594.557600980448,-1.71450551880629E-14));
#379=CARTESIAN_POINT('Origin',(73.5046088091159,558.322934666095,0.));
#380=CARTESIAN_POINT('Origin',(73.5046088091159,558.322934666095,0.));
#381=CARTESIAN_POINT('',(222.257186057632,518.464801720306,1.88595607068692E-14));
#382=CARTESIAN_POINT('',(222.257186057632,518.464801720306,1.88595607068692E-14));
#383=CARTESIAN_POINT('Origin',(73.5046088091159,558.322934666095,0.));
#384=CARTESIAN_POINT('Origin',(73.5046088091159,558.322934666095,0.));
#385=CARTESIAN_POINT('Origin',(0.,0.,0.));
#386=CARTESIAN_POINT('',(-140.,168.,1.71450551880629E-14));
#387=CARTESIAN_POINT('Origin',(-1.39664899375665E-30,168.,0.));
#388=CARTESIAN_POINT('',(-140.,0.,1.71450551880629E-14));
#389=CARTESIAN_POINT('',(-140.,0.,1.71450551880629E-14));
#390=CARTESIAN_POINT('Origin',(0.,0.,0.));
#391=CARTESIAN_POINT('Origin',(0.,0.,0.));
#392=CARTESIAN_POINT('',(154.,0.,-1.88595607068692E-14));
#393=CARTESIAN_POINT('',(154.,0.,-1.88595607068692E-14));
#394=CARTESIAN_POINT('Origin',(0.,0.,0.));
#395=CARTESIAN_POINT('Origin',(0.,0.,0.));
#396=CARTESIAN_POINT('Origin',(881.107477076114,168.,0.));
#397=CARTESIAN_POINT('',(151.729663344315,363.436196166614,1.54305496692567E-14));
#398=CARTESIAN_POINT('Origin',(30.0230092318924,396.047395849532,0.));
#399=CARTESIAN_POINT('',(126.,168.,1.54305496692567E-14));
#400=CARTESIAN_POINT('Origin',(881.107477076114,168.,1.54305496692567E-14));
#401=CARTESIAN_POINT('Origin',(-1.39664899375665E-30,168.,0.));
#402=CARTESIAN_POINT('Origin',(30.0230092318924,396.047395849532,0.));
#403=CARTESIAN_POINT('Origin',(-4.98289814290017E-63,168.,0.));
#404=UNCERTAINTY_MEASURE_WITH_UNIT(LENGTH_MEASURE(0.01),#408,
'DISTANCE_ACCURACY_VALUE',
'Maximum model space distance between geometric entities at asserted c
onnectivities');
#405=UNCERTAINTY_MEASURE_WITH_UNIT(LENGTH_MEASURE(0.01),#408,
'DISTANCE_ACCURACY_VALUE',
'Maximum model space distance between geometric entities at asserted c
onnectivities');
#406=(
GEOMETRIC_REPRESENTATION_CONTEXT(3)
GLOBAL_UNCERTAINTY_ASSIGNED_CONTEXT((#404))
GLOBAL_UNIT_ASSIGNED_CONTEXT((#408,#410,#411))
REPRESENTATION_CONTEXT('','3D')
);
#407=(
GEOMETRIC_REPRESENTATION_CONTEXT(3)
GLOBAL_UNCERTAINTY_ASSIGNED_CONTEXT((#405))
GLOBAL_UNIT_ASSIGNED_CONTEXT((#408,#410,#411))
REPRESENTATION_CONTEXT('','3D')
);
#408=(
LENGTH_UNIT()
NAMED_UNIT(*)
SI_UNIT(.MILLI.,.METRE.)
);
#409=(
LENGTH_UNIT()
NAMED_UNIT(*)
SI_UNIT(.CENTI.,.METRE.)
);
#410=(
NAMED_UNIT(*)
PLANE_ANGLE_UNIT()
SI_UNIT($,.RADIAN.)
);
#411=(
NAMED_UNIT(*)
SI_UNIT($,.STERADIAN.)
SOLID_ANGLE_UNIT()
);
#412=SHAPE_DEFINITION_REPRESENTATION(#413,#414);
#413=PRODUCT_DEFINITION_SHAPE('',$,#416);
#414=SHAPE_REPRESENTATION('',(#198),#406);
#415=PRODUCT_DEFINITION_CONTEXT('part definition',#420,'design');
#416=PRODUCT_DEFINITION('KLIIV280','KLIIV280',#417,#415);
#417=PRODUCT_DEFINITION_FORMATION('0',$,#422);
#418=PRODUCT_RELATED_PRODUCT_CATEGORY('KLIIV280','KLIIV280',(#422));
#419=APPLICATION_PROTOCOL_DEFINITION('international standard',
'automotive_design',2009,#420);
#420=APPLICATION_CONTEXT(
'Core Data for Automotive Mechanical Design Process');
#421=PRODUCT_CONTEXT('part definition',#420,'mechanical');
#422=PRODUCT('KLIIV280','KLIIV280','PVC Bend 15\X\B0, \X\D8280, PN12,5',
(#421));
#423=PRESENTATION_STYLE_ASSIGNMENT((#424));
#424=SURFACE_STYLE_USAGE(.BOTH.,#427);
#425=SURFACE_STYLE_RENDERING_WITH_PROPERTIES($,#431,(#426));
#426=SURFACE_STYLE_TRANSPARENT(0.);
#427=SURFACE_SIDE_STYLE('',(#428,#425));
#428=SURFACE_STYLE_FILL_AREA(#429);
#429=FILL_AREA_STYLE('',(#430));
#430=FILL_AREA_STYLE_COLOUR('',#431);
#431=COLOUR_RGB('',0.250980392156863,0.290196078431373,0.329411764705882);
ENDSEC;
END-ISO-10303-21;
