ISO-10303-21;
HEADER;
/* Generated by software containing ST-Developer
 * from STEP Tools, Inc. (www.steptools.com) 
 */

FILE_DESCRIPTION(
/* description */ (
'PE100 Reducing Tee with Short ends, Ø090-032, SDR11 PN16'),
/* implementation_level */ '2;1');

FILE_NAME(
/* name */ 
'TRDE11-RC-090-032',
/* time_stamp */ '2022-04-05T16:17:56+02:00',
/* author */ ('COAB Solutions'),
/* organization */ ('GPA Flowsystem'),
/* preprocessor_version */ 'ST-DEVELOPER v18.1',
/* originating_system */ 'www.coabsolutions.com',
/* authorisation */ '');

FILE_SCHEMA (('AUTOMOTIVE_DESIGN { 1 0 10303 214 3 1 1 }'));
ENDSEC;

DATA;
#10=MECHANICAL_DESIGN_GEOMETRIC_PRESENTATION_REPRESENTATION('',(#13),#507);
#11=SHAPE_REPRESENTATION_RELATIONSHIP('SRR','None',#514,#12);
#12=ADVANCED_BREP_SHAPE_REPRESENTATION('',(#14),#506);
#13=STYLED_ITEM('',(#523),#14);
#14=MANIFOLD_SOLID_BREP('Solid2',#223);
#15=CONICAL_SURFACE('',#257,16.8,0.785398163397448);
#16=CONICAL_SURFACE('',#258,47.25,0.785398163397447);
#17=CONICAL_SURFACE('',#267,47.25,0.785398163397447);
#18=FACE_BOUND('',#42,.T.);
#19=FACE_BOUND('',#48,.T.);
#20=FACE_BOUND('',#50,.T.);
#21=PLANE('',#253);
#22=PLANE('',#262);
#23=PLANE('',#263);
#24=FACE_OUTER_BOUND('',#37,.T.);
#25=FACE_OUTER_BOUND('',#38,.T.);
#26=FACE_OUTER_BOUND('',#39,.T.);
#27=FACE_OUTER_BOUND('',#40,.T.);
#28=FACE_OUTER_BOUND('',#41,.T.);
#29=FACE_OUTER_BOUND('',#43,.T.);
#30=FACE_OUTER_BOUND('',#44,.T.);
#31=FACE_OUTER_BOUND('',#45,.T.);
#32=FACE_OUTER_BOUND('',#46,.T.);
#33=FACE_OUTER_BOUND('',#47,.T.);
#34=FACE_OUTER_BOUND('',#49,.T.);
#35=FACE_OUTER_BOUND('',#51,.T.);
#36=FACE_OUTER_BOUND('',#52,.T.);
#37=EDGE_LOOP('',(#143,#144,#145,#146,#147,#148));
#38=EDGE_LOOP('',(#149,#150,#151,#152,#153,#154,#155,#156,#157));
#39=EDGE_LOOP('',(#158,#159,#160,#161,#162,#163,#164,#165,#166));
#40=EDGE_LOOP('',(#167,#168,#169,#170,#171,#172));
#41=EDGE_LOOP('',(#173));
#42=EDGE_LOOP('',(#174));
#43=EDGE_LOOP('',(#175,#176,#177,#178));
#44=EDGE_LOOP('',(#179,#180,#181,#182));
#45=EDGE_LOOP('',(#183,#184,#185,#186));
#46=EDGE_LOOP('',(#187,#188,#189,#190));
#47=EDGE_LOOP('',(#191));
#48=EDGE_LOOP('',(#192));
#49=EDGE_LOOP('',(#193));
#50=EDGE_LOOP('',(#194));
#51=EDGE_LOOP('',(#195,#196,#197,#198));
#52=EDGE_LOOP('',(#199,#200,#201,#202));
#53=B_SPLINE_CURVE_WITH_KNOTS('',3,(#339,#340,#341,#342,#343,#344,#345,
#346,#347,#348,#349,#350),.UNSPECIFIED.,.F.,.F.,(4,2,2,2,2,4),(0.,0.247246035103287,
0.494492070206574,0.988984140413149,1.48318283897552,1.97738153753788),
 .UNSPECIFIED.);
#54=B_SPLINE_CURVE_WITH_KNOTS('',3,(#352,#353,#354,#355,#356,#357,#358,
#359,#360,#361,#362,#363),.UNSPECIFIED.,.F.,.F.,(4,2,2,2,2,4),(5.93214461261365,
6.42634331117602,6.92054200973839,7.41503407994496,7.66228011504825,7.90952615015154),
 .UNSPECIFIED.);
#55=B_SPLINE_CURVE_WITH_KNOTS('',3,(#364,#365,#366,#367,#368,#369,#370,
#371,#372,#373,#374,#375,#376,#377,#378,#379,#380,#381,#382,#383,#384,#385),
 .UNSPECIFIED.,.F.,.F.,(4,2,2,2,2,2,2,2,2,2,4),(1.97738153753788,2.47158023610025,
2.96577893466262,3.46027100486919,3.70751703997248,3.95476307507577,4.20200911017905,
4.44925514528234,4.94374721548892,5.43794591405128,5.93214461261365),
 .UNSPECIFIED.);
#56=B_SPLINE_CURVE_WITH_KNOTS('',3,(#392,#393,#394,#395,#396,#397,#398,
#399,#400,#401,#402,#403,#404,#405,#406,#407,#408,#409,#410,#411,#412,#413,
#414,#415,#416,#417,#418,#419,#420,#421,#422,#423,#424,#425),
 .UNSPECIFIED.,.F.,.F.,(4,2,2,2,2,2,2,2,2,2,2,2,2,2,2,2,4),(2.67742114472412,
3.01199670314342,3.34657226156272,3.68114781998202,4.01572337840131,4.35050310616305,
4.68528283392478,5.02006256168651,5.35484228944824,5.68962201720998,6.02440174497171,
6.35918147273344,6.69396120049517,7.02853675891447,7.36311231733377,7.69768787575307,
8.03226343417237),.UNSPECIFIED.);
#57=B_SPLINE_CURVE_WITH_KNOTS('',3,(#430,#431,#432,#433,#434,#435,#436,
#437,#438,#439,#440,#441,#442,#443,#444,#445,#446,#447),.UNSPECIFIED.,.F.,
 .F.,(4,2,2,2,2,2,2,2,4),(8.03226343417237,8.36683899259166,8.70141455101096,
9.03599010943026,9.37056566784956,9.70534539561129,10.040125123373,10.3749048511348,
10.7096845788965),.UNSPECIFIED.);
#58=B_SPLINE_CURVE_WITH_KNOTS('',3,(#448,#449,#450,#451,#452,#453,#454,
#455,#456,#457,#458,#459,#460,#461,#462,#463,#464,#465),.UNSPECIFIED.,.F.,
 .F.,(4,2,2,2,2,2,2,2,4),(0.,0.334779727761732,0.669559455523465,1.0043391832852,
1.33911891104693,1.67369446946623,2.00827002788553,2.34284558630482,2.67742114472412),
 .UNSPECIFIED.);
#59=LINE('',#337,#71);
#60=LINE('',#390,#72);
#61=LINE('',#427,#73);
#62=LINE('',#469,#74);
#63=LINE('',#471,#75);
#64=LINE('',#475,#76);
#65=LINE('',#483,#77);
#66=LINE('',#485,#78);
#67=LINE('',#489,#79);
#68=LINE('',#493,#80);
#69=LINE('',#501,#81);
#70=LINE('',#503,#82);
#71=VECTOR('',#274,13.);
#72=VECTOR('',#279,49.5);
#73=VECTOR('',#280,49.5);
#74=VECTOR('',#287,36.8);
#75=VECTOR('',#288,36.8);
#76=VECTOR('',#293,17.6);
#77=VECTOR('',#304,16.);
#78=VECTOR('',#307,16.8);
#79=VECTOR('',#312,47.25);
#80=VECTOR('',#317,45.);
#81=VECTOR('',#328,45.);
#82=VECTOR('',#331,47.25);
#83=CIRCLE('',#244,13.);
#84=CIRCLE('',#246,49.5);
#85=CIRCLE('',#247,49.5);
#86=CIRCLE('',#249,36.8);
#87=CIRCLE('',#250,36.8);
#88=CIRCLE('',#252,17.6);
#89=CIRCLE('',#254,16.);
#90=CIRCLE('',#256,16.);
#91=CIRCLE('',#259,45.);
#92=CIRCLE('',#261,45.);
#93=CIRCLE('',#264,45.);
#94=CIRCLE('',#266,45.);
#95=VERTEX_POINT('',#334);
#96=VERTEX_POINT('',#336);
#97=VERTEX_POINT('',#338);
#98=VERTEX_POINT('',#351);
#99=VERTEX_POINT('',#387);
#100=VERTEX_POINT('',#389);
#101=VERTEX_POINT('',#391);
#102=VERTEX_POINT('',#426);
#103=VERTEX_POINT('',#429);
#104=VERTEX_POINT('',#467);
#105=VERTEX_POINT('',#470);
#106=VERTEX_POINT('',#474);
#107=VERTEX_POINT('',#478);
#108=VERTEX_POINT('',#481);
#109=VERTEX_POINT('',#487);
#110=VERTEX_POINT('',#491);
#111=VERTEX_POINT('',#496);
#112=VERTEX_POINT('',#499);
#113=EDGE_CURVE('',#95,#95,#83,.T.);
#114=EDGE_CURVE('',#95,#96,#59,.T.);
#115=EDGE_CURVE('',#97,#96,#53,.T.);
#116=EDGE_CURVE('',#98,#97,#54,.T.);
#117=EDGE_CURVE('',#96,#98,#55,.T.);
#118=EDGE_CURVE('',#99,#99,#84,.T.);
#119=EDGE_CURVE('',#99,#100,#60,.T.);
#120=EDGE_CURVE('',#100,#101,#56,.T.);
#121=EDGE_CURVE('',#101,#102,#61,.T.);
#122=EDGE_CURVE('',#102,#102,#85,.T.);
#123=EDGE_CURVE('',#101,#103,#57,.T.);
#124=EDGE_CURVE('',#103,#100,#58,.T.);
#125=EDGE_CURVE('',#104,#104,#86,.T.);
#126=EDGE_CURVE('',#104,#98,#62,.T.);
#127=EDGE_CURVE('',#96,#105,#63,.T.);
#128=EDGE_CURVE('',#105,#105,#87,.T.);
#129=EDGE_CURVE('',#100,#106,#64,.T.);
#130=EDGE_CURVE('',#106,#106,#88,.T.);
#131=EDGE_CURVE('',#107,#107,#89,.T.);
#132=EDGE_CURVE('',#108,#108,#90,.T.);
#133=EDGE_CURVE('',#108,#107,#65,.T.);
#134=EDGE_CURVE('',#106,#108,#66,.T.);
#135=EDGE_CURVE('',#109,#109,#91,.T.);
#136=EDGE_CURVE('',#109,#99,#67,.T.);
#137=EDGE_CURVE('',#110,#110,#92,.T.);
#138=EDGE_CURVE('',#110,#109,#68,.T.);
#139=EDGE_CURVE('',#111,#111,#93,.T.);
#140=EDGE_CURVE('',#112,#112,#94,.T.);
#141=EDGE_CURVE('',#112,#111,#69,.T.);
#142=EDGE_CURVE('',#102,#112,#70,.T.);
#143=ORIENTED_EDGE('',*,*,#113,.F.);
#144=ORIENTED_EDGE('',*,*,#114,.T.);
#145=ORIENTED_EDGE('',*,*,#115,.F.);
#146=ORIENTED_EDGE('',*,*,#116,.F.);
#147=ORIENTED_EDGE('',*,*,#117,.F.);
#148=ORIENTED_EDGE('',*,*,#114,.F.);
#149=ORIENTED_EDGE('',*,*,#118,.F.);
#150=ORIENTED_EDGE('',*,*,#119,.T.);
#151=ORIENTED_EDGE('',*,*,#120,.T.);
#152=ORIENTED_EDGE('',*,*,#121,.T.);
#153=ORIENTED_EDGE('',*,*,#122,.T.);
#154=ORIENTED_EDGE('',*,*,#121,.F.);
#155=ORIENTED_EDGE('',*,*,#123,.T.);
#156=ORIENTED_EDGE('',*,*,#124,.T.);
#157=ORIENTED_EDGE('',*,*,#119,.F.);
#158=ORIENTED_EDGE('',*,*,#125,.T.);
#159=ORIENTED_EDGE('',*,*,#126,.T.);
#160=ORIENTED_EDGE('',*,*,#116,.T.);
#161=ORIENTED_EDGE('',*,*,#115,.T.);
#162=ORIENTED_EDGE('',*,*,#127,.T.);
#163=ORIENTED_EDGE('',*,*,#128,.F.);
#164=ORIENTED_EDGE('',*,*,#127,.F.);
#165=ORIENTED_EDGE('',*,*,#117,.T.);
#166=ORIENTED_EDGE('',*,*,#126,.F.);
#167=ORIENTED_EDGE('',*,*,#124,.F.);
#168=ORIENTED_EDGE('',*,*,#123,.F.);
#169=ORIENTED_EDGE('',*,*,#120,.F.);
#170=ORIENTED_EDGE('',*,*,#129,.T.);
#171=ORIENTED_EDGE('',*,*,#130,.T.);
#172=ORIENTED_EDGE('',*,*,#129,.F.);
#173=ORIENTED_EDGE('',*,*,#131,.F.);
#174=ORIENTED_EDGE('',*,*,#113,.T.);
#175=ORIENTED_EDGE('',*,*,#132,.F.);
#176=ORIENTED_EDGE('',*,*,#133,.T.);
#177=ORIENTED_EDGE('',*,*,#131,.T.);
#178=ORIENTED_EDGE('',*,*,#133,.F.);
#179=ORIENTED_EDGE('',*,*,#130,.F.);
#180=ORIENTED_EDGE('',*,*,#134,.T.);
#181=ORIENTED_EDGE('',*,*,#132,.T.);
#182=ORIENTED_EDGE('',*,*,#134,.F.);
#183=ORIENTED_EDGE('',*,*,#135,.F.);
#184=ORIENTED_EDGE('',*,*,#136,.T.);
#185=ORIENTED_EDGE('',*,*,#118,.T.);
#186=ORIENTED_EDGE('',*,*,#136,.F.);
#187=ORIENTED_EDGE('',*,*,#137,.F.);
#188=ORIENTED_EDGE('',*,*,#138,.T.);
#189=ORIENTED_EDGE('',*,*,#135,.T.);
#190=ORIENTED_EDGE('',*,*,#138,.F.);
#191=ORIENTED_EDGE('',*,*,#137,.T.);
#192=ORIENTED_EDGE('',*,*,#125,.F.);
#193=ORIENTED_EDGE('',*,*,#139,.F.);
#194=ORIENTED_EDGE('',*,*,#128,.T.);
#195=ORIENTED_EDGE('',*,*,#140,.F.);
#196=ORIENTED_EDGE('',*,*,#141,.T.);
#197=ORIENTED_EDGE('',*,*,#139,.T.);
#198=ORIENTED_EDGE('',*,*,#141,.F.);
#199=ORIENTED_EDGE('',*,*,#122,.F.);
#200=ORIENTED_EDGE('',*,*,#142,.T.);
#201=ORIENTED_EDGE('',*,*,#140,.T.);
#202=ORIENTED_EDGE('',*,*,#142,.F.);
#203=CYLINDRICAL_SURFACE('',#243,13.);
#204=CYLINDRICAL_SURFACE('',#245,49.5);
#205=CYLINDRICAL_SURFACE('',#248,36.8);
#206=CYLINDRICAL_SURFACE('',#251,17.6);
#207=CYLINDRICAL_SURFACE('',#255,16.);
#208=CYLINDRICAL_SURFACE('',#260,45.);
#209=CYLINDRICAL_SURFACE('',#265,45.);
#210=ADVANCED_FACE('',(#24),#203,.F.);
#211=ADVANCED_FACE('',(#25),#204,.T.);
#212=ADVANCED_FACE('',(#26),#205,.F.);
#213=ADVANCED_FACE('',(#27),#206,.T.);
#214=ADVANCED_FACE('',(#28,#18),#21,.T.);
#215=ADVANCED_FACE('',(#29),#207,.T.);
#216=ADVANCED_FACE('',(#30),#15,.T.);
#217=ADVANCED_FACE('',(#31),#16,.T.);
#218=ADVANCED_FACE('',(#32),#208,.T.);
#219=ADVANCED_FACE('',(#33,#19),#22,.T.);
#220=ADVANCED_FACE('',(#34,#20),#23,.T.);
#221=ADVANCED_FACE('',(#35),#209,.T.);
#222=ADVANCED_FACE('',(#36),#17,.T.);
#223=CLOSED_SHELL('',(#210,#211,#212,#213,#214,#215,#216,#217,#218,#219,
#220,#221,#222));
#224=DERIVED_UNIT_ELEMENT(#226,1.);
#225=DERIVED_UNIT_ELEMENT(#509,-3.);
#226=(
MASS_UNIT()
NAMED_UNIT(*)
SI_UNIT($,.GRAM.)
);
#227=DERIVED_UNIT((#224,#225));
#228=MEASURE_REPRESENTATION_ITEM('density measure',
POSITIVE_RATIO_MEASURE(1.),#227);
#229=PROPERTY_DEFINITION_REPRESENTATION(#234,#231);
#230=PROPERTY_DEFINITION_REPRESENTATION(#235,#232);
#231=REPRESENTATION('material name',(#233),#506);
#232=REPRESENTATION('density',(#228),#506);
#233=DESCRIPTIVE_REPRESENTATION_ITEM('PE','PE');
#234=PROPERTY_DEFINITION('material property','material name',#516);
#235=PROPERTY_DEFINITION('material property','density of part',#516);
#236=DATE_TIME_ROLE('creation_date');
#237=APPLIED_DATE_AND_TIME_ASSIGNMENT(#238,#236,(#516));
#238=DATE_AND_TIME(#239,#240);
#239=CALENDAR_DATE(2021,19,10);
#240=LOCAL_TIME(0,0,0.,#241);
#241=COORDINATED_UNIVERSAL_TIME_OFFSET(0,0,.BEHIND.);
#242=AXIS2_PLACEMENT_3D('placement',#332,#268,#269);
#243=AXIS2_PLACEMENT_3D('',#333,#270,#271);
#244=AXIS2_PLACEMENT_3D('',#335,#272,#273);
#245=AXIS2_PLACEMENT_3D('',#386,#275,#276);
#246=AXIS2_PLACEMENT_3D('',#388,#277,#278);
#247=AXIS2_PLACEMENT_3D('',#428,#281,#282);
#248=AXIS2_PLACEMENT_3D('',#466,#283,#284);
#249=AXIS2_PLACEMENT_3D('',#468,#285,#286);
#250=AXIS2_PLACEMENT_3D('',#472,#289,#290);
#251=AXIS2_PLACEMENT_3D('',#473,#291,#292);
#252=AXIS2_PLACEMENT_3D('',#476,#294,#295);
#253=AXIS2_PLACEMENT_3D('',#477,#296,#297);
#254=AXIS2_PLACEMENT_3D('',#479,#298,#299);
#255=AXIS2_PLACEMENT_3D('',#480,#300,#301);
#256=AXIS2_PLACEMENT_3D('',#482,#302,#303);
#257=AXIS2_PLACEMENT_3D('',#484,#305,#306);
#258=AXIS2_PLACEMENT_3D('',#486,#308,#309);
#259=AXIS2_PLACEMENT_3D('',#488,#310,#311);
#260=AXIS2_PLACEMENT_3D('',#490,#313,#314);
#261=AXIS2_PLACEMENT_3D('',#492,#315,#316);
#262=AXIS2_PLACEMENT_3D('',#494,#318,#319);
#263=AXIS2_PLACEMENT_3D('',#495,#320,#321);
#264=AXIS2_PLACEMENT_3D('',#497,#322,#323);
#265=AXIS2_PLACEMENT_3D('',#498,#324,#325);
#266=AXIS2_PLACEMENT_3D('',#500,#326,#327);
#267=AXIS2_PLACEMENT_3D('',#502,#329,#330);
#268=DIRECTION('axis',(0.,0.,1.));
#269=DIRECTION('refdir',(1.,0.,0.));
#270=DIRECTION('center_axis',(0.,0.,1.));
#271=DIRECTION('ref_axis',(-1.,0.,0.));
#272=DIRECTION('center_axis',(0.,0.,1.));
#273=DIRECTION('ref_axis',(1.,0.,0.));
#274=DIRECTION('',(0.,0.,1.));
#275=DIRECTION('center_axis',(-1.,0.,0.));
#276=DIRECTION('ref_axis',(0.,0.,1.));
#277=DIRECTION('center_axis',(-1.,0.,0.));
#278=DIRECTION('ref_axis',(0.,0.,1.));
#279=DIRECTION('',(1.,0.,0.));
#280=DIRECTION('',(1.,0.,0.));
#281=DIRECTION('center_axis',(-1.,0.,0.));
#282=DIRECTION('ref_axis',(0.,0.,1.));
#283=DIRECTION('center_axis',(-1.,0.,0.));
#284=DIRECTION('ref_axis',(0.,0.,1.));
#285=DIRECTION('center_axis',(-1.,0.,0.));
#286=DIRECTION('ref_axis',(0.,0.,1.));
#287=DIRECTION('',(1.,0.,0.));
#288=DIRECTION('',(1.,0.,0.));
#289=DIRECTION('center_axis',(-1.,0.,0.));
#290=DIRECTION('ref_axis',(0.,0.,1.));
#291=DIRECTION('center_axis',(0.,0.,1.));
#292=DIRECTION('ref_axis',(1.,0.,0.));
#293=DIRECTION('',(0.,0.,-1.));
#294=DIRECTION('center_axis',(0.,0.,1.));
#295=DIRECTION('ref_axis',(1.,0.,0.));
#296=DIRECTION('center_axis',(0.,0.,-1.));
#297=DIRECTION('ref_axis',(-1.,0.,0.));
#298=DIRECTION('center_axis',(0.,0.,1.));
#299=DIRECTION('ref_axis',(1.,0.,0.));
#300=DIRECTION('center_axis',(0.,0.,1.));
#301=DIRECTION('ref_axis',(1.,0.,0.));
#302=DIRECTION('center_axis',(0.,0.,1.));
#303=DIRECTION('ref_axis',(1.,0.,0.));
#304=DIRECTION('',(0.,0.,-1.));
#305=DIRECTION('center_axis',(0.,0.,1.));
#306=DIRECTION('ref_axis',(1.,0.,0.));
#307=DIRECTION('',(0.707106781186548,8.65956056235493E-17,-0.707106781186548));
#308=DIRECTION('center_axis',(1.,0.,0.));
#309=DIRECTION('ref_axis',(0.,0.,1.));
#310=DIRECTION('center_axis',(-1.,0.,0.));
#311=DIRECTION('ref_axis',(0.,0.,1.));
#312=DIRECTION('',(0.707106781186548,-8.65956056235492E-17,-0.707106781186547));
#313=DIRECTION('center_axis',(-1.,0.,0.));
#314=DIRECTION('ref_axis',(0.,0.,1.));
#315=DIRECTION('center_axis',(-1.,0.,0.));
#316=DIRECTION('ref_axis',(0.,0.,1.));
#317=DIRECTION('',(1.,0.,0.));
#318=DIRECTION('center_axis',(-1.,0.,0.));
#319=DIRECTION('ref_axis',(0.,0.,1.));
#320=DIRECTION('center_axis',(1.,0.,0.));
#321=DIRECTION('ref_axis',(0.,0.,-1.));
#322=DIRECTION('center_axis',(-1.,0.,0.));
#323=DIRECTION('ref_axis',(0.,0.,1.));
#324=DIRECTION('center_axis',(-1.,0.,0.));
#325=DIRECTION('ref_axis',(0.,0.,1.));
#326=DIRECTION('center_axis',(-1.,0.,0.));
#327=DIRECTION('ref_axis',(0.,0.,1.));
#328=DIRECTION('',(1.,0.,0.));
#329=DIRECTION('center_axis',(-1.,0.,0.));
#330=DIRECTION('ref_axis',(0.,0.,1.));
#331=DIRECTION('',(0.707106781186548,8.65956056235492E-17,0.707106781186547));
#332=CARTESIAN_POINT('',(0.,0.,0.));
#333=CARTESIAN_POINT('Origin',(0.,0.,-85.));
#334=CARTESIAN_POINT('',(13.,1.59204083889156E-15,-85.));
#335=CARTESIAN_POINT('Origin',(0.,0.,-85.));
#336=CARTESIAN_POINT('',(13.,1.62868768791465E-15,-36.8));
#337=CARTESIAN_POINT('',(13.,1.59204083889156E-15,-85.));
#338=CARTESIAN_POINT('',(2.77555756156289E-16,13.,-34.4273147369934));
#339=CARTESIAN_POINT('Ctrl Pts',(-2.77555756156289E-16,13.,-34.4273147369934));
#340=CARTESIAN_POINT('Ctrl Pts',(0.82415345034429,13.,-34.4273147369934));
#341=CARTESIAN_POINT('Ctrl Pts',(1.67389990043847,12.9203677749311,-34.4577353108578));
#342=CARTESIAN_POINT('Ctrl Pts',(3.35935886446111,12.5877937857452,-34.5806141320021));
#343=CARTESIAN_POINT('Ctrl Pts',(4.19510057202436,12.334951506981,-34.6729411489741));
#344=CARTESIAN_POINT('Ctrl Pts',(6.59362301775112,11.3368326543608,-35.017305591807));
#345=CARTESIAN_POINT('Ctrl Pts',(8.04577949649456,10.3389968143557,-35.3376194599306));
#346=CARTESIAN_POINT('Ctrl Pts',(10.3383165557877,8.0464597550625,-35.9290276285047));
#347=CARTESIAN_POINT('Ctrl Pts',(11.3366740058342,6.59403598658307,-36.2403801919442));
#348=CARTESIAN_POINT('Ctrl Pts',(12.6678908491946,3.3950013104098,-36.6786100223977));
#349=CARTESIAN_POINT('Ctrl Pts',(13.,1.64732899520789,-36.8));
#350=CARTESIAN_POINT('Ctrl Pts',(13.,1.11022302462516E-15,-36.8));
#351=CARTESIAN_POINT('',(-13.,-4.19624040352515E-15,-36.8));
#352=CARTESIAN_POINT('Ctrl Pts',(-13.,-3.88578058618805E-15,-36.8));
#353=CARTESIAN_POINT('Ctrl Pts',(-13.,1.64732899520789,-36.8));
#354=CARTESIAN_POINT('Ctrl Pts',(-12.6678908491946,3.3950013104098,-36.6786100223977));
#355=CARTESIAN_POINT('Ctrl Pts',(-11.3366740058342,6.59403598658307,-36.2403801919442));
#356=CARTESIAN_POINT('Ctrl Pts',(-10.3383165557877,8.0464597550625,-35.9290276285047));
#357=CARTESIAN_POINT('Ctrl Pts',(-8.04577949649457,10.3389968143557,-35.3376194599306));
#358=CARTESIAN_POINT('Ctrl Pts',(-6.59362301775112,11.3368326543608,-35.017305591807));
#359=CARTESIAN_POINT('Ctrl Pts',(-4.19510057202435,12.334951506981,-34.6729411489741));
#360=CARTESIAN_POINT('Ctrl Pts',(-3.35935886446111,12.5877937857452,-34.5806141320021));
#361=CARTESIAN_POINT('Ctrl Pts',(-1.67389990043847,12.9203677749311,-34.4577353108578));
#362=CARTESIAN_POINT('Ctrl Pts',(-0.824153450344286,13.,-34.4273147369934));
#363=CARTESIAN_POINT('Ctrl Pts',(4.44089209850063E-15,13.,-34.4273147369934));
#364=CARTESIAN_POINT('Ctrl Pts',(13.,5.55111512312578E-16,-36.8));
#365=CARTESIAN_POINT('Ctrl Pts',(13.,-1.64732899520789,-36.8));
#366=CARTESIAN_POINT('Ctrl Pts',(12.6678908491946,-3.3950013104098,-36.6786100223977));
#367=CARTESIAN_POINT('Ctrl Pts',(11.3366740058342,-6.59403598658307,-36.2403801919442));
#368=CARTESIAN_POINT('Ctrl Pts',(10.3383165557877,-8.0464597550625,-35.9290276285047));
#369=CARTESIAN_POINT('Ctrl Pts',(8.04577949649457,-10.3389968143557,-35.3376194599306));
#370=CARTESIAN_POINT('Ctrl Pts',(6.59362301775112,-11.3368326543608,-35.017305591807));
#371=CARTESIAN_POINT('Ctrl Pts',(4.19510057202436,-12.334951506981,-34.6729411489741));
#372=CARTESIAN_POINT('Ctrl Pts',(3.35935886446111,-12.5877937857452,-34.5806141320021));
#373=CARTESIAN_POINT('Ctrl Pts',(1.67389990043847,-12.9203677749311,-34.4577353108578));
#374=CARTESIAN_POINT('Ctrl Pts',(0.82415345034429,-13.,-34.4273147369934));
#375=CARTESIAN_POINT('Ctrl Pts',(-0.82415345034429,-13.,-34.4273147369934));
#376=CARTESIAN_POINT('Ctrl Pts',(-1.67389990043847,-12.9203677749311,-34.4577353108578));
#377=CARTESIAN_POINT('Ctrl Pts',(-3.35935886446111,-12.5877937857452,-34.5806141320021));
#378=CARTESIAN_POINT('Ctrl Pts',(-4.19510057202435,-12.334951506981,-34.6729411489741));
#379=CARTESIAN_POINT('Ctrl Pts',(-6.59362301775111,-11.3368326543608,-35.017305591807));
#380=CARTESIAN_POINT('Ctrl Pts',(-8.04577949649456,-10.3389968143557,-35.3376194599306));
#381=CARTESIAN_POINT('Ctrl Pts',(-10.3383165557877,-8.0464597550625,-35.9290276285047));
#382=CARTESIAN_POINT('Ctrl Pts',(-11.3366740058342,-6.59403598658308,-36.2403801919442));
#383=CARTESIAN_POINT('Ctrl Pts',(-12.6678908491946,-3.39500131040981,-36.6786100223977));
#384=CARTESIAN_POINT('Ctrl Pts',(-13.,-1.6473289952079,-36.8));
#385=CARTESIAN_POINT('Ctrl Pts',(-13.,-3.33066907387547E-15,-36.8));
#386=CARTESIAN_POINT('Origin',(0.,0.,0.));
#387=CARTESIAN_POINT('',(-45.,-6.0620016557794E-15,-49.5));
#388=CARTESIAN_POINT('Origin',(-45.,0.,0.));
#389=CARTESIAN_POINT('',(-17.6,-2.05955568134269E-15,-49.5));
#390=CARTESIAN_POINT('',(0.,-6.0620016557794E-15,-49.5));
#391=CARTESIAN_POINT('',(17.6,-5.11266899906187E-15,-49.5));
#392=CARTESIAN_POINT('Ctrl Pts',(-17.6,2.22044604925031E-15,-49.5));
#393=CARTESIAN_POINT('Ctrl Pts',(-17.6,-1.11525186139766,-49.5));
#394=CARTESIAN_POINT('Ctrl Pts',(-17.4922825395827,-2.26554532105572,-49.4613532855561));
#395=CARTESIAN_POINT('Ctrl Pts',(-17.0420590358068,-4.54762222086787,-49.3039278006924));
#396=CARTESIAN_POINT('Ctrl Pts',(-16.6996805539013,-5.67943763262946,-49.1852477262448));
#397=CARTESIAN_POINT('Ctrl Pts',(-15.7985065905409,-7.84490458149738,-48.8866247330653));
#398=CARTESIAN_POINT('Ctrl Pts',(-15.2389953143543,-8.88045618753442,-48.7066656488152));
#399=CARTESIAN_POINT('Ctrl Pts',(-13.9501436624716,-10.7927277386007,-48.3189280582498));
#400=CARTESIAN_POINT('Ctrl Pts',(-13.2207061860914,-11.669452511675,-48.1114962124596));
#401=CARTESIAN_POINT('Ctrl Pts',(-11.6689791978978,-13.2211794998687,-47.7084204975076));
#402=CARTESIAN_POINT('Ctrl Pts',(-10.792029329543,-13.950675012444,-47.4982457300238));
#403=CARTESIAN_POINT('Ctrl Pts',(-8.87988134329954,-15.2393220838167,-47.1006129814866));
#404=CARTESIAN_POINT('Ctrl Pts',(-7.84467883492784,-15.7985913929267,-46.9135578291444));
#405=CARTESIAN_POINT('Ctrl Pts',(-5.6799109671916,-16.69949271498,-46.6004760337798));
#406=CARTESIAN_POINT('Ctrl Pts',(-4.54843521349237,-17.0418391161291,-46.474546155355));
#407=CARTESIAN_POINT('Ctrl Pts',(-2.26646590317791,-17.492160402751,-46.3069330160292));
#408=CARTESIAN_POINT('Ctrl Pts',(-1.11593242587244,-17.6,-46.2654298585888));
#409=CARTESIAN_POINT('Ctrl Pts',(1.11593242587244,-17.6,-46.2654298585888));
#410=CARTESIAN_POINT('Ctrl Pts',(2.26646590317791,-17.492160402751,-46.3069330160292));
#411=CARTESIAN_POINT('Ctrl Pts',(4.54843521349237,-17.0418391161291,-46.474546155355));
#412=CARTESIAN_POINT('Ctrl Pts',(5.6799109671916,-16.69949271498,-46.6004760337798));
#413=CARTESIAN_POINT('Ctrl Pts',(7.84467883492783,-15.7985913929267,-46.9135578291444));
#414=CARTESIAN_POINT('Ctrl Pts',(8.87988134329952,-15.2393220838167,-47.1006129814866));
#415=CARTESIAN_POINT('Ctrl Pts',(10.792029329543,-13.950675012444,-47.4982457300238));
#416=CARTESIAN_POINT('Ctrl Pts',(11.6689791978978,-13.2211794998687,-47.7084204975076));
#417=CARTESIAN_POINT('Ctrl Pts',(13.2207061860914,-11.669452511675,-48.1114962124596));
#418=CARTESIAN_POINT('Ctrl Pts',(13.9501436624716,-10.7927277386007,-48.3189280582498));
#419=CARTESIAN_POINT('Ctrl Pts',(15.2389953143543,-8.88045618753443,-48.7066656488152));
#420=CARTESIAN_POINT('Ctrl Pts',(15.7985065905409,-7.84490458149739,-48.8866247330653));
#421=CARTESIAN_POINT('Ctrl Pts',(16.6996805539013,-5.67943763262946,-49.1852477262448));
#422=CARTESIAN_POINT('Ctrl Pts',(17.0420590358068,-4.54762222086787,-49.3039278006924));
#423=CARTESIAN_POINT('Ctrl Pts',(17.4922825395827,-2.26554532105573,-49.4613532855561));
#424=CARTESIAN_POINT('Ctrl Pts',(17.6,-1.11525186139766,-49.5));
#425=CARTESIAN_POINT('Ctrl Pts',(17.6,-4.44089209850063E-15,-49.5));
#426=CARTESIAN_POINT('',(45.,-6.0620016557794E-15,-49.5));
#427=CARTESIAN_POINT('',(0.,-6.0620016557794E-15,-49.5));
#428=CARTESIAN_POINT('Origin',(45.,0.,0.));
#429=CARTESIAN_POINT('',(-2.77555756156289E-16,17.6,-46.2654298585888));
#430=CARTESIAN_POINT('Ctrl Pts',(17.6,-4.44089209850063E-15,-49.5));
#431=CARTESIAN_POINT('Ctrl Pts',(17.6,1.11525186139765,-49.5));
#432=CARTESIAN_POINT('Ctrl Pts',(17.4922825395827,2.26554532105572,-49.4613532855561));
#433=CARTESIAN_POINT('Ctrl Pts',(17.0420590358068,4.54762222086787,-49.3039278006924));
#434=CARTESIAN_POINT('Ctrl Pts',(16.6996805539013,5.67943763262946,-49.1852477262448));
#435=CARTESIAN_POINT('Ctrl Pts',(15.7985065905409,7.84490458149738,-48.8866247330653));
#436=CARTESIAN_POINT('Ctrl Pts',(15.2389953143543,8.88045618753442,-48.7066656488152));
#437=CARTESIAN_POINT('Ctrl Pts',(13.9501436624716,10.7927277386007,-48.3189280582498));
#438=CARTESIAN_POINT('Ctrl Pts',(13.2207061860914,11.669452511675,-48.1114962124596));
#439=CARTESIAN_POINT('Ctrl Pts',(11.6689791978978,13.2211794998687,-47.7084204975076));
#440=CARTESIAN_POINT('Ctrl Pts',(10.792029329543,13.950675012444,-47.4982457300238));
#441=CARTESIAN_POINT('Ctrl Pts',(8.87988134329953,15.2393220838167,-47.1006129814866));
#442=CARTESIAN_POINT('Ctrl Pts',(7.84467883492784,15.7985913929267,-46.9135578291444));
#443=CARTESIAN_POINT('Ctrl Pts',(5.6799109671916,16.69949271498,-46.6004760337798));
#444=CARTESIAN_POINT('Ctrl Pts',(4.54843521349237,17.0418391161291,-46.474546155355));
#445=CARTESIAN_POINT('Ctrl Pts',(2.26646590317791,17.492160402751,-46.3069330160292));
#446=CARTESIAN_POINT('Ctrl Pts',(1.11593242587244,17.6,-46.2654298585888));
#447=CARTESIAN_POINT('Ctrl Pts',(-2.77555756156289E-16,17.6,-46.2654298585888));
#448=CARTESIAN_POINT('Ctrl Pts',(0.,17.6,-46.2654298585888));
#449=CARTESIAN_POINT('Ctrl Pts',(-1.11593242587244,17.6,-46.2654298585888));
#450=CARTESIAN_POINT('Ctrl Pts',(-2.26646590317791,17.492160402751,-46.3069330160292));
#451=CARTESIAN_POINT('Ctrl Pts',(-4.54843521349237,17.0418391161291,-46.474546155355));
#452=CARTESIAN_POINT('Ctrl Pts',(-5.6799109671916,16.69949271498,-46.6004760337798));
#453=CARTESIAN_POINT('Ctrl Pts',(-7.84467883492784,15.7985913929267,-46.9135578291444));
#454=CARTESIAN_POINT('Ctrl Pts',(-8.87988134329953,15.2393220838167,-47.1006129814866));
#455=CARTESIAN_POINT('Ctrl Pts',(-10.792029329543,13.950675012444,-47.4982457300238));
#456=CARTESIAN_POINT('Ctrl Pts',(-11.6689791978978,13.2211794998687,-47.7084204975076));
#457=CARTESIAN_POINT('Ctrl Pts',(-13.2207061860914,11.669452511675,-48.1114962124596));
#458=CARTESIAN_POINT('Ctrl Pts',(-13.9501436624716,10.7927277386007,-48.3189280582498));
#459=CARTESIAN_POINT('Ctrl Pts',(-15.2389953143543,8.88045618753442,-48.7066656488152));
#460=CARTESIAN_POINT('Ctrl Pts',(-15.7985065905409,7.84490458149738,-48.8866247330653));
#461=CARTESIAN_POINT('Ctrl Pts',(-16.6996805539013,5.67943763262946,-49.1852477262448));
#462=CARTESIAN_POINT('Ctrl Pts',(-17.0420590358068,4.54762222086787,-49.3039278006924));
#463=CARTESIAN_POINT('Ctrl Pts',(-17.4922825395827,2.26554532105572,-49.4613532855561));
#464=CARTESIAN_POINT('Ctrl Pts',(-17.6,1.11525186139766,-49.5));
#465=CARTESIAN_POINT('Ctrl Pts',(-17.6,1.94289029309402E-15,-49.5));
#466=CARTESIAN_POINT('Origin',(0.,0.,0.));
#467=CARTESIAN_POINT('',(-106.5,-4.50670022086226E-15,-36.8));
#468=CARTESIAN_POINT('Origin',(-106.5,0.,0.));
#469=CARTESIAN_POINT('',(0.,-4.50670022086226E-15,-36.8));
#470=CARTESIAN_POINT('',(106.5,0.,-36.8));
#471=CARTESIAN_POINT('',(0.,-4.50670022086226E-15,-36.8));
#472=CARTESIAN_POINT('Origin',(106.5,0.,0.));
#473=CARTESIAN_POINT('Origin',(0.,0.,-30.2));
#474=CARTESIAN_POINT('',(-17.6,-2.15537836649934E-15,-60.4));
#475=CARTESIAN_POINT('',(-17.6,-2.15537836649934E-15,-30.2));
#476=CARTESIAN_POINT('Origin',(0.,0.,-60.4));
#477=CARTESIAN_POINT('Origin',(16.,0.,-85.));
#478=CARTESIAN_POINT('',(-16.,-1.95943487863577E-15,-85.));
#479=CARTESIAN_POINT('Origin',(0.,0.,-85.));
#480=CARTESIAN_POINT('Origin',(0.,0.,-73.5));
#481=CARTESIAN_POINT('',(-16.,-1.95943487863577E-15,-62.));
#482=CARTESIAN_POINT('Origin',(0.,0.,-62.));
#483=CARTESIAN_POINT('',(-16.,-1.95943487863577E-15,-73.5));
#484=CARTESIAN_POINT('Origin',(0.,0.,-61.2));
#485=CARTESIAN_POINT('',(-16.8,-2.05740662256755E-15,-61.2));
#486=CARTESIAN_POINT('Origin',(-47.25,0.,0.));
#487=CARTESIAN_POINT('',(-49.5,-5.51091059616309E-15,-45.));
#488=CARTESIAN_POINT('Origin',(-49.5,0.,0.));
#489=CARTESIAN_POINT('',(-47.25,-5.78645612597124E-15,-47.25));
#490=CARTESIAN_POINT('Origin',(-78.,0.,0.));
#491=CARTESIAN_POINT('',(-106.5,-5.51091059616309E-15,-45.));
#492=CARTESIAN_POINT('Origin',(-106.5,0.,0.));
#493=CARTESIAN_POINT('',(-78.,-5.51091059616309E-15,-45.));
#494=CARTESIAN_POINT('Origin',(-106.5,0.,36.8));
#495=CARTESIAN_POINT('Origin',(106.5,0.,45.));
#496=CARTESIAN_POINT('',(106.5,-5.51091059616309E-15,-45.));
#497=CARTESIAN_POINT('Origin',(106.5,0.,0.));
#498=CARTESIAN_POINT('Origin',(78.,0.,0.));
#499=CARTESIAN_POINT('',(49.5,-5.51091059616309E-15,-45.));
#500=CARTESIAN_POINT('Origin',(49.5,0.,0.));
#501=CARTESIAN_POINT('',(78.,-5.51091059616309E-15,-45.));
#502=CARTESIAN_POINT('Origin',(47.25,0.,0.));
#503=CARTESIAN_POINT('',(47.25,-5.78645612597124E-15,-47.25));
#504=UNCERTAINTY_MEASURE_WITH_UNIT(LENGTH_MEASURE(0.01),#508,
'DISTANCE_ACCURACY_VALUE',
'Maximum model space distance between geometric entities at asserted c
onnectivities');
#505=UNCERTAINTY_MEASURE_WITH_UNIT(LENGTH_MEASURE(0.01),#508,
'DISTANCE_ACCURACY_VALUE',
'Maximum model space distance between geometric entities at asserted c
onnectivities');
#506=(
GEOMETRIC_REPRESENTATION_CONTEXT(3)
GLOBAL_UNCERTAINTY_ASSIGNED_CONTEXT((#504))
GLOBAL_UNIT_ASSIGNED_CONTEXT((#508,#510,#511))
REPRESENTATION_CONTEXT('','3D')
);
#507=(
GEOMETRIC_REPRESENTATION_CONTEXT(3)
GLOBAL_UNCERTAINTY_ASSIGNED_CONTEXT((#505))
GLOBAL_UNIT_ASSIGNED_CONTEXT((#508,#510,#511))
REPRESENTATION_CONTEXT('','3D')
);
#508=(
LENGTH_UNIT()
NAMED_UNIT(*)
SI_UNIT(.MILLI.,.METRE.)
);
#509=(
LENGTH_UNIT()
NAMED_UNIT(*)
SI_UNIT(.CENTI.,.METRE.)
);
#510=(
NAMED_UNIT(*)
PLANE_ANGLE_UNIT()
SI_UNIT($,.RADIAN.)
);
#511=(
NAMED_UNIT(*)
SI_UNIT($,.STERADIAN.)
SOLID_ANGLE_UNIT()
);
#512=SHAPE_DEFINITION_REPRESENTATION(#513,#514);
#513=PRODUCT_DEFINITION_SHAPE('',$,#516);
#514=SHAPE_REPRESENTATION('',(#242),#506);
#515=PRODUCT_DEFINITION_CONTEXT('part definition',#520,'design');
#516=PRODUCT_DEFINITION('TRDE11-RC-090-032','TRDE11-RC-090-032',#517,#515);
#517=PRODUCT_DEFINITION_FORMATION('0',$,#522);
#518=PRODUCT_RELATED_PRODUCT_CATEGORY('TRDE11-RC-090-032',
'TRDE11-RC-090-032',(#522));
#519=APPLICATION_PROTOCOL_DEFINITION('international standard',
'automotive_design',2009,#520);
#520=APPLICATION_CONTEXT(
'Core Data for Automotive Mechanical Design Process');
#521=PRODUCT_CONTEXT('part definition',#520,'mechanical');
#522=PRODUCT('TRDE11-RC-090-032','TRDE11-RC-090-032',
'PE100 Reducing Tee with Short ends, \X\D8090-032, SDR11 PN16',(#521));
#523=PRESENTATION_STYLE_ASSIGNMENT((#524));
#524=SURFACE_STYLE_USAGE(.BOTH.,#527);
#525=SURFACE_STYLE_RENDERING_WITH_PROPERTIES($,#531,(#526));
#526=SURFACE_STYLE_TRANSPARENT(0.);
#527=SURFACE_SIDE_STYLE('',(#528,#525));
#528=SURFACE_STYLE_FILL_AREA(#529);
#529=FILL_AREA_STYLE('',(#530));
#530=FILL_AREA_STYLE_COLOUR('',#531);
#531=COLOUR_RGB('',0.109803921568627,0.109803921568627,0.129411764705882);
ENDSEC;
END-ISO-10303-21;
