ISO-10303-21;
HEADER;
/* Generated by software containing ST-Developer
 * from STEP Tools, Inc. (www.steptools.com) 
 */

FILE_DESCRIPTION(
/* description */ ('PVC Bend 15°, Ø160, PN12,5'),
/* implementation_level */ '2;1');

FILE_NAME(
/* name */ 
'KLIIV160',
/* time_stamp */ '2022-05-11T16:00:50+02:00',
/* author */ ('COAB Solutions'),
/* organization */ ('GPA Flowsystem'),
/* preprocessor_version */ 'ST-DEVELOPER v18.1',
/* originating_system */ 'www.coabsolutions.com',
/* authorisation */ '');

FILE_SCHEMA (('AUTOMOTIVE_DESIGN { 1 0 10303 214 3 1 1 }'));
ENDSEC;

DATA;
#10=MECHANICAL_DESIGN_GEOMETRIC_PRESENTATION_REPRESENTATION('',(#13),#407);
#11=SHAPE_REPRESENTATION_RELATIONSHIP('SRR','None',#414,#12);
#12=ADVANCED_BREP_SHAPE_REPRESENTATION('',(#14),#406);
#13=STYLED_ITEM('',(#423),#14);
#14=MANIFOLD_SOLID_BREP('Solid2',#179);
#15=FACE_BOUND('',#47,.T.);
#16=FACE_BOUND('',#51,.T.);
#17=FACE_BOUND('',#54,.T.);
#18=FACE_BOUND('',#56,.T.);
#19=PLANE('',#210);
#20=PLANE('',#216);
#21=PLANE('',#221);
#22=PLANE('',#222);
#23=CYLINDRICAL_SURFACE('',#205,80.);
#24=CYLINDRICAL_SURFACE('',#208,90.);
#25=CYLINDRICAL_SURFACE('',#211,80.);
#26=CYLINDRICAL_SURFACE('',#214,90.);
#27=TOROIDAL_SURFACE('',#201,531.702787890758,80.);
#28=TOROIDAL_SURFACE('',#217,531.702787890758,70.);
#29=FACE_OUTER_BOUND('',#41,.T.);
#30=FACE_OUTER_BOUND('',#42,.T.);
#31=FACE_OUTER_BOUND('',#43,.T.);
#32=FACE_OUTER_BOUND('',#44,.T.);
#33=FACE_OUTER_BOUND('',#45,.T.);
#34=FACE_OUTER_BOUND('',#46,.T.);
#35=FACE_OUTER_BOUND('',#48,.T.);
#36=FACE_OUTER_BOUND('',#49,.T.);
#37=FACE_OUTER_BOUND('',#50,.T.);
#38=FACE_OUTER_BOUND('',#52,.T.);
#39=FACE_OUTER_BOUND('',#53,.T.);
#40=FACE_OUTER_BOUND('',#55,.T.);
#41=EDGE_LOOP('',(#121,#122,#123,#124,#125));
#42=EDGE_LOOP('',(#126,#127,#128,#129,#130,#131));
#43=EDGE_LOOP('',(#132,#133,#134,#135,#136));
#44=EDGE_LOOP('',(#137,#138,#139,#140));
#45=EDGE_LOOP('',(#141,#142,#143,#144));
#46=EDGE_LOOP('',(#145));
#47=EDGE_LOOP('',(#146));
#48=EDGE_LOOP('',(#147,#148,#149,#150));
#49=EDGE_LOOP('',(#151,#152,#153,#154));
#50=EDGE_LOOP('',(#155));
#51=EDGE_LOOP('',(#156));
#52=EDGE_LOOP('',(#157,#158,#159,#160));
#53=EDGE_LOOP('',(#161));
#54=EDGE_LOOP('',(#162));
#55=EDGE_LOOP('',(#163));
#56=EDGE_LOOP('',(#164));
#57=B_SPLINE_CURVE_WITH_KNOTS('',3,(#286,#287,#288,#289,#290,#291,#292,
#293,#294,#295,#296,#297,#298,#299,#300,#301,#302,#303,#304,#305),
 .UNSPECIFIED.,.F.,.F.,(4,2,2,2,2,2,2,2,2,4),(-50.4200538608624,-48.6505266727627,
-46.8815761624591,-43.7540659279597,-40.6256489346514,-37.4976462493872,
-34.3718466909995,-31.2490826682316,-28.1275485212927,-25.2132654733783),
 .UNSPECIFIED.);
#58=B_SPLINE_CURVE_WITH_KNOTS('',3,(#306,#307,#308,#309,#310,#311,#312,
#313,#314,#315,#316,#317,#318,#319,#320,#321,#322,#323,#324,#325),
 .UNSPECIFIED.,.F.,.F.,(4,2,2,2,2,2,2,2,2,4),(-25.2132654733783,-25.0036896672082,
-21.8760785892745,-18.7470105422139,-15.6194593103252,-12.4943535742164,
-9.37089925800238,-6.24791023253076,-3.12447390074602,0.),.UNSPECIFIED.);
#59=B_SPLINE_CURVE_WITH_KNOTS('',3,(#330,#331,#332,#333,#334,#335,#336,
#337,#338,#339,#340,#341,#342,#343,#344,#345,#346,#347,#348,#349),
 .UNSPECIFIED.,.F.,.F.,(4,2,2,2,2,2,2,2,2,4),(-25.2119182080235,-24.8155517326816,
-21.6386153155628,-18.4652700788096,-15.2890985796828,-12.2062182668631,
-9.17507571775785,-6.15470329201141,-3.10689370735368,0.),.UNSPECIFIED.);
#60=B_SPLINE_CURVE_WITH_KNOTS('',3,(#350,#351,#352,#353,#354,#355,#356,
#357,#358,#359,#360,#361,#362,#363,#364,#365,#366,#367,#368,#369),
 .UNSPECIFIED.,.F.,.F.,(4,2,2,2,2,2,2,2,2,4),(-50.4183019635814,-48.46309657742,
-46.551246768407,-43.3744867917858,-40.1978139267156,-37.0063491671524,
-33.9027786572485,-30.8926985031514,-27.9146576724715,-25.2119182080235),
 .UNSPECIFIED.);
#61=LINE('',#284,#67);
#62=LINE('',#372,#68);
#63=LINE('',#378,#69);
#64=LINE('',#382,#70);
#65=LINE('',#389,#71);
#66=LINE('',#393,#72);
#67=VECTOR('',#229,84.9584455082232);
#68=VECTOR('',#236,84.958445508223);
#69=VECTOR('',#243,80.);
#70=VECTOR('',#248,90.);
#71=VECTOR('',#257,80.);
#72=VECTOR('',#262,90.);
#73=CIRCLE('',#200,90.);
#74=CIRCLE('',#202,451.702787890758);
#75=CIRCLE('',#204,90.);
#76=CIRCLE('',#206,80.);
#77=CIRCLE('',#207,80.);
#78=CIRCLE('',#209,90.);
#79=CIRCLE('',#212,80.);
#80=CIRCLE('',#213,80.);
#81=CIRCLE('',#215,90.);
#82=CIRCLE('',#218,70.);
#83=CIRCLE('',#219,461.702787890758);
#84=CIRCLE('',#220,70.);
#85=VERTEX_POINT('',#281);
#86=VERTEX_POINT('',#283);
#87=VERTEX_POINT('',#285);
#88=VERTEX_POINT('',#327);
#89=VERTEX_POINT('',#329);
#90=VERTEX_POINT('',#371);
#91=VERTEX_POINT('',#375);
#92=VERTEX_POINT('',#377);
#93=VERTEX_POINT('',#381);
#94=VERTEX_POINT('',#386);
#95=VERTEX_POINT('',#388);
#96=VERTEX_POINT('',#392);
#97=VERTEX_POINT('',#397);
#98=VERTEX_POINT('',#399);
#99=EDGE_CURVE('',#85,#85,#73,.T.);
#100=EDGE_CURVE('',#85,#86,#61,.T.);
#101=EDGE_CURVE('',#87,#86,#57,.T.);
#102=EDGE_CURVE('',#86,#87,#58,.T.);
#103=EDGE_CURVE('',#86,#88,#74,.T.);
#104=EDGE_CURVE('',#88,#89,#59,.T.);
#105=EDGE_CURVE('',#89,#88,#60,.T.);
#106=EDGE_CURVE('',#88,#90,#62,.T.);
#107=EDGE_CURVE('',#90,#90,#75,.T.);
#108=EDGE_CURVE('',#91,#91,#76,.T.);
#109=EDGE_CURVE('',#91,#92,#63,.T.);
#110=EDGE_CURVE('',#92,#92,#77,.T.);
#111=EDGE_CURVE('',#85,#93,#64,.T.);
#112=EDGE_CURVE('',#93,#93,#78,.T.);
#113=EDGE_CURVE('',#94,#94,#79,.T.);
#114=EDGE_CURVE('',#94,#95,#65,.T.);
#115=EDGE_CURVE('',#95,#95,#80,.T.);
#116=EDGE_CURVE('',#90,#96,#66,.T.);
#117=EDGE_CURVE('',#96,#96,#81,.T.);
#118=EDGE_CURVE('',#97,#97,#82,.T.);
#119=EDGE_CURVE('',#97,#98,#83,.T.);
#120=EDGE_CURVE('',#98,#98,#84,.T.);
#121=ORIENTED_EDGE('',*,*,#99,.T.);
#122=ORIENTED_EDGE('',*,*,#100,.T.);
#123=ORIENTED_EDGE('',*,*,#101,.F.);
#124=ORIENTED_EDGE('',*,*,#102,.F.);
#125=ORIENTED_EDGE('',*,*,#100,.F.);
#126=ORIENTED_EDGE('',*,*,#101,.T.);
#127=ORIENTED_EDGE('',*,*,#103,.T.);
#128=ORIENTED_EDGE('',*,*,#104,.T.);
#129=ORIENTED_EDGE('',*,*,#105,.T.);
#130=ORIENTED_EDGE('',*,*,#103,.F.);
#131=ORIENTED_EDGE('',*,*,#102,.T.);
#132=ORIENTED_EDGE('',*,*,#105,.F.);
#133=ORIENTED_EDGE('',*,*,#104,.F.);
#134=ORIENTED_EDGE('',*,*,#106,.T.);
#135=ORIENTED_EDGE('',*,*,#107,.T.);
#136=ORIENTED_EDGE('',*,*,#106,.F.);
#137=ORIENTED_EDGE('',*,*,#108,.F.);
#138=ORIENTED_EDGE('',*,*,#109,.T.);
#139=ORIENTED_EDGE('',*,*,#110,.F.);
#140=ORIENTED_EDGE('',*,*,#109,.F.);
#141=ORIENTED_EDGE('',*,*,#99,.F.);
#142=ORIENTED_EDGE('',*,*,#111,.T.);
#143=ORIENTED_EDGE('',*,*,#112,.F.);
#144=ORIENTED_EDGE('',*,*,#111,.F.);
#145=ORIENTED_EDGE('',*,*,#112,.T.);
#146=ORIENTED_EDGE('',*,*,#110,.T.);
#147=ORIENTED_EDGE('',*,*,#113,.T.);
#148=ORIENTED_EDGE('',*,*,#114,.T.);
#149=ORIENTED_EDGE('',*,*,#115,.T.);
#150=ORIENTED_EDGE('',*,*,#114,.F.);
#151=ORIENTED_EDGE('',*,*,#107,.F.);
#152=ORIENTED_EDGE('',*,*,#116,.T.);
#153=ORIENTED_EDGE('',*,*,#117,.T.);
#154=ORIENTED_EDGE('',*,*,#116,.F.);
#155=ORIENTED_EDGE('',*,*,#117,.F.);
#156=ORIENTED_EDGE('',*,*,#115,.F.);
#157=ORIENTED_EDGE('',*,*,#118,.F.);
#158=ORIENTED_EDGE('',*,*,#119,.T.);
#159=ORIENTED_EDGE('',*,*,#120,.T.);
#160=ORIENTED_EDGE('',*,*,#119,.F.);
#161=ORIENTED_EDGE('',*,*,#108,.T.);
#162=ORIENTED_EDGE('',*,*,#118,.T.);
#163=ORIENTED_EDGE('',*,*,#113,.F.);
#164=ORIENTED_EDGE('',*,*,#120,.F.);
#165=CONICAL_SURFACE('',#199,84.9584455082231,0.785398163397436);
#166=CONICAL_SURFACE('',#203,84.958445508223,0.785398163397445);
#167=ADVANCED_FACE('',(#29),#165,.T.);
#168=ADVANCED_FACE('',(#30),#27,.T.);
#169=ADVANCED_FACE('',(#31),#166,.T.);
#170=ADVANCED_FACE('',(#32),#23,.F.);
#171=ADVANCED_FACE('',(#33),#24,.T.);
#172=ADVANCED_FACE('',(#34,#15),#19,.T.);
#173=ADVANCED_FACE('',(#35),#25,.F.);
#174=ADVANCED_FACE('',(#36),#26,.T.);
#175=ADVANCED_FACE('',(#37,#16),#20,.F.);
#176=ADVANCED_FACE('',(#38),#28,.F.);
#177=ADVANCED_FACE('',(#39,#17),#21,.T.);
#178=ADVANCED_FACE('',(#40,#18),#22,.F.);
#179=CLOSED_SHELL('',(#167,#168,#169,#170,#171,#172,#173,#174,#175,#176,
#177,#178));
#180=DERIVED_UNIT_ELEMENT(#182,1.);
#181=DERIVED_UNIT_ELEMENT(#409,-3.);
#182=(
MASS_UNIT()
NAMED_UNIT(*)
SI_UNIT($,.GRAM.)
);
#183=DERIVED_UNIT((#180,#181));
#184=MEASURE_REPRESENTATION_ITEM('density measure',
POSITIVE_RATIO_MEASURE(1.),#183);
#185=PROPERTY_DEFINITION_REPRESENTATION(#190,#187);
#186=PROPERTY_DEFINITION_REPRESENTATION(#191,#188);
#187=REPRESENTATION('material name',(#189),#406);
#188=REPRESENTATION('density',(#184),#406);
#189=DESCRIPTIVE_REPRESENTATION_ITEM('PVC','PVC');
#190=PROPERTY_DEFINITION('material property','material name',#416);
#191=PROPERTY_DEFINITION('material property','density of part',#416);
#192=DATE_TIME_ROLE('creation_date');
#193=APPLIED_DATE_AND_TIME_ASSIGNMENT(#194,#192,(#416));
#194=DATE_AND_TIME(#195,#196);
#195=CALENDAR_DATE(2021,19,10);
#196=LOCAL_TIME(0,0,0.,#197);
#197=COORDINATED_UNIVERSAL_TIME_OFFSET(0,0,.BEHIND.);
#198=AXIS2_PLACEMENT_3D('placement',#279,#223,#224);
#199=AXIS2_PLACEMENT_3D('',#280,#225,#226);
#200=AXIS2_PLACEMENT_3D('',#282,#227,#228);
#201=AXIS2_PLACEMENT_3D('',#326,#230,#231);
#202=AXIS2_PLACEMENT_3D('',#328,#232,#233);
#203=AXIS2_PLACEMENT_3D('',#370,#234,#235);
#204=AXIS2_PLACEMENT_3D('',#373,#237,#238);
#205=AXIS2_PLACEMENT_3D('',#374,#239,#240);
#206=AXIS2_PLACEMENT_3D('',#376,#241,#242);
#207=AXIS2_PLACEMENT_3D('',#379,#244,#245);
#208=AXIS2_PLACEMENT_3D('',#380,#246,#247);
#209=AXIS2_PLACEMENT_3D('',#383,#249,#250);
#210=AXIS2_PLACEMENT_3D('',#384,#251,#252);
#211=AXIS2_PLACEMENT_3D('',#385,#253,#254);
#212=AXIS2_PLACEMENT_3D('',#387,#255,#256);
#213=AXIS2_PLACEMENT_3D('',#390,#258,#259);
#214=AXIS2_PLACEMENT_3D('',#391,#260,#261);
#215=AXIS2_PLACEMENT_3D('',#394,#263,#264);
#216=AXIS2_PLACEMENT_3D('',#395,#265,#266);
#217=AXIS2_PLACEMENT_3D('',#396,#267,#268);
#218=AXIS2_PLACEMENT_3D('',#398,#269,#270);
#219=AXIS2_PLACEMENT_3D('',#400,#271,#272);
#220=AXIS2_PLACEMENT_3D('',#401,#273,#274);
#221=AXIS2_PLACEMENT_3D('',#402,#275,#276);
#222=AXIS2_PLACEMENT_3D('',#403,#277,#278);
#223=DIRECTION('axis',(0.,0.,1.));
#224=DIRECTION('refdir',(1.,0.,0.));
#225=DIRECTION('center_axis',(0.25881904510252,0.965925826289069,0.));
#226=DIRECTION('ref_axis',(-0.965925826289069,0.25881904510252,0.));
#227=DIRECTION('center_axis',(-0.25881904510252,-0.965925826289069,0.));
#228=DIRECTION('ref_axis',(-0.965925826289069,0.25881904510252,0.));
#229=DIRECTION('',(-0.866025403784432,-0.500000000000011,8.65956056235483E-17));
#230=DIRECTION('center_axis',(0.,0.,-1.));
#231=DIRECTION('ref_axis',(-1.,0.,0.));
#232=DIRECTION('center_axis',(0.,0.,1.));
#233=DIRECTION('ref_axis',(-1.,0.,0.));
#234=DIRECTION('center_axis',(0.,-1.,0.));
#235=DIRECTION('ref_axis',(-1.,0.,0.));
#236=DIRECTION('',(0.707106781186545,-0.70710678118655,-8.6595605623549E-17));
#237=DIRECTION('center_axis',(0.,1.,0.));
#238=DIRECTION('ref_axis',(-1.,0.,0.));
#239=DIRECTION('center_axis',(-0.25881904510252,-0.965925826289068,0.));
#240=DIRECTION('ref_axis',(0.965925826289068,-0.25881904510252,0.));
#241=DIRECTION('center_axis',(0.258819045102521,0.965925826289068,0.));
#242=DIRECTION('ref_axis',(-0.965925826289068,0.258819045102521,0.));
#243=DIRECTION('',(0.25881904510252,0.965925826289068,0.));
#244=DIRECTION('center_axis',(-0.25881904510252,-0.965925826289069,0.));
#245=DIRECTION('ref_axis',(0.965925826289068,-0.25881904510252,0.));
#246=DIRECTION('center_axis',(-0.25881904510252,-0.965925826289068,0.));
#247=DIRECTION('ref_axis',(-0.965925826289068,0.25881904510252,0.));
#248=DIRECTION('',(0.25881904510252,0.965925826289068,0.));
#249=DIRECTION('center_axis',(0.25881904510252,0.965925826289069,0.));
#250=DIRECTION('ref_axis',(-0.965925826289068,0.25881904510252,0.));
#251=DIRECTION('center_axis',(0.25881904510252,0.965925826289069,0.));
#252=DIRECTION('ref_axis',(0.,0.,1.));
#253=DIRECTION('center_axis',(0.,1.,0.));
#254=DIRECTION('ref_axis',(1.,0.,0.));
#255=DIRECTION('center_axis',(-6.12323399573677E-17,1.,0.));
#256=DIRECTION('ref_axis',(-1.,-6.12323399573677E-17,0.));
#257=DIRECTION('',(0.,-1.,0.));
#258=DIRECTION('center_axis',(0.,-1.,0.));
#259=DIRECTION('ref_axis',(1.,0.,0.));
#260=DIRECTION('center_axis',(0.,1.,0.));
#261=DIRECTION('ref_axis',(-1.,0.,0.));
#262=DIRECTION('',(0.,-1.,0.));
#263=DIRECTION('center_axis',(0.,1.,0.));
#264=DIRECTION('ref_axis',(-1.,0.,0.));
#265=DIRECTION('center_axis',(0.,1.,0.));
#266=DIRECTION('ref_axis',(0.,0.,1.));
#267=DIRECTION('center_axis',(0.,0.,-1.));
#268=DIRECTION('ref_axis',(-1.,0.,0.));
#269=DIRECTION('center_axis',(-0.258819045102521,-0.965925826289068,0.));
#270=DIRECTION('ref_axis',(0.965925826289068,-0.258819045102521,0.));
#271=DIRECTION('center_axis',(0.,0.,1.));
#272=DIRECTION('ref_axis',(-1.,0.,0.));
#273=DIRECTION('center_axis',(6.12323399573677E-17,-1.,0.));
#274=DIRECTION('ref_axis',(1.,6.12323399573677E-17,0.));
#275=DIRECTION('center_axis',(0.258819045102521,0.965925826289068,0.));
#276=DIRECTION('ref_axis',(0.,0.,1.));
#277=DIRECTION('center_axis',(-6.12323399573677E-17,1.,0.));
#278=DIRECTION('ref_axis',(0.,0.,1.));
#279=CARTESIAN_POINT('',(0.,0.,0.));
#280=CARTESIAN_POINT('Origin',(16.8124828377824,231.745040151983,0.));
#281=CARTESIAN_POINT('',(105.050657523193,213.321093781008,-1.10218211923262E-14));
#282=CARTESIAN_POINT('Origin',(18.1173331571764,236.614807840234,0.));
#283=CARTESIAN_POINT('',(92.9358734052682,206.32661990935,-1.71176731661055E-14));
#284=CARTESIAN_POINT('',(98.8760395155476,209.756176412151,-1.0404408835218E-14));
#285=CARTESIAN_POINT('',(-61.6861564711259,247.559285884171,0.));
#286=CARTESIAN_POINT('Ctrl Pts',(-61.6861564711258,247.559285884171,0.));
#287=CARTESIAN_POINT('Ctrl Pts',(-61.6861564711258,247.559285884171,-5.89842396033241));
#288=CARTESIAN_POINT('Ctrl Pts',(-61.0558147628283,247.391005395099,-11.7787816494751));
#289=CARTESIAN_POINT('Ctrl Pts',(-58.5578758406803,246.724158662879,-23.2868619471088));
#290=CARTESIAN_POINT('Ctrl Pts',(-56.6983275761506,246.227741335131,-28.8794432016919));
#291=CARTESIAN_POINT('Ctrl Pts',(-49.9543657150437,244.427494027518,-43.6331146084985));
#292=CARTESIAN_POINT('Ctrl Pts',(-43.9082434801026,242.813604833118,-52.0948948503697));
#293=CARTESIAN_POINT('Ctrl Pts',(-29.0185136902817,238.839750783653,-66.1433139929379));
#294=CARTESIAN_POINT('Ctrl Pts',(-20.3167614299868,236.517656159047,-71.5945191914464));
#295=CARTESIAN_POINT('Ctrl Pts',(-1.38434713830623,231.466574404806,-78.7341531595288));
#296=CARTESIAN_POINT('Ctrl Pts',(8.66491470022947,228.785996763355,-80.3547500435581));
#297=CARTESIAN_POINT('Ctrl Pts',(28.7908132995251,223.418897842007,-79.5159161490009));
#298=CARTESIAN_POINT('Ctrl Pts',(38.6752063997573,220.783649974022,-77.0673698780413));
#299=CARTESIAN_POINT('Ctrl Pts',(56.9721365334724,215.906788151899,-68.3914744328598));
#300=CARTESIAN_POINT('Ctrl Pts',(65.2116640813059,213.711279514742,-62.2505030502496));
#301=CARTESIAN_POINT('Ctrl Pts',(78.952466121606,210.050611014987,-47.0508900989498));
#302=CARTESIAN_POINT('Ctrl Pts',(84.3237801428894,208.620050065183,-38.1383319416737));
#303=CARTESIAN_POINT('Ctrl Pts',(91.2296937711747,206.780916234419,-19.3309946811736));
#304=CARTESIAN_POINT('Ctrl Pts',(92.9358734052682,206.32661990935,-9.70268850629908));
#305=CARTESIAN_POINT('Ctrl Pts',(92.9358734052682,206.32661990935,-1.99840144432528E-14));
#306=CARTESIAN_POINT('Ctrl Pts',(92.9358734052682,206.32661990935,-2.12330153459561E-14));
#307=CARTESIAN_POINT('Ctrl Pts',(92.9358734052682,206.32661990935,0.69775266585049));
#308=CARTESIAN_POINT('Ctrl Pts',(92.9270503922009,206.328969304655,1.3958900019667));
#309=CARTESIAN_POINT('Ctrl Pts',(92.6455954567412,206.403915306016,12.5160249741276));
#310=CARTESIAN_POINT('Ctrl Pts',(90.4153267222963,206.99776044983,22.7844784839374));
#311=CARTESIAN_POINT('Ctrl Pts',(82.2718767902366,209.16654582284,41.8616097927206));
#312=CARTESIAN_POINT('Ctrl Pts',(76.4351185568585,210.721156891145,50.4865865397442));
#313=CARTESIAN_POINT('Ctrl Pts',(61.8964601431308,214.594624782896,64.9286747600861));
#314=CARTESIAN_POINT('Ctrl Pts',(53.3351050511153,216.876058319694,70.6089289457732));
#315=CARTESIAN_POINT('Ctrl Pts',(34.5976909350967,221.870689241888,78.2486027489203));
#316=CARTESIAN_POINT('Ctrl Pts',(24.6017827892443,224.535869458901,80.1379961202457));
#317=CARTESIAN_POINT('Ctrl Pts',(4.47851046441777,229.90263024121,79.8463953799936));
#318=CARTESIAN_POINT('Ctrl Pts',(-5.45686499405541,232.552998919143,77.6703327148976));
#319=CARTESIAN_POINT('Ctrl Pts',(-23.9621642312035,237.490393036101,69.5024465137089));
#320=CARTESIAN_POINT('Ctrl Pts',(-32.3557285390847,239.730351070872,63.5891206997753));
#321=CARTESIAN_POINT('Ctrl Pts',(-46.4835657080573,243.501004149636,48.7661570273406));
#322=CARTESIAN_POINT('Ctrl Pts',(-52.0825093300185,244.995570221777,39.9976721618223));
#323=CARTESIAN_POINT('Ctrl Pts',(-59.7209220301407,247.03462212607,20.7302082608268));
#324=CARTESIAN_POINT('Ctrl Pts',(-61.6861564711259,247.559285884171,10.4149130024867));
#325=CARTESIAN_POINT('Ctrl Pts',(-61.6861564711259,247.559285884171,-4.44089209850063E-15));
#326=CARTESIAN_POINT('Origin',(531.702787890758,99.,0.));
#327=CARTESIAN_POINT('',(80.1083201890373,108.891679810963,1.48905944182158E-14));
#328=CARTESIAN_POINT('Origin',(531.702787890758,99.,9.79717439317883E-15));
#329=CARTESIAN_POINT('',(-79.9168910164461,109.083108983554,0.));
#330=CARTESIAN_POINT('Ctrl Pts',(80.1083201890373,108.891679810963,2.19269047363468E-14));
#331=CARTESIAN_POINT('Ctrl Pts',(80.1083201890373,108.891679810963,-1.3184677270393));
#332=CARTESIAN_POINT('Ctrl Pts',(80.0757196487831,108.891730598643,-2.63810033314153));
#333=CARTESIAN_POINT('Ctrl Pts',(79.4863462253034,108.892648259811,-14.5345116449449));
#334=CARTESIAN_POINT('Ctrl Pts',(76.8669957750412,108.896756860883,-24.9025736876641));
#335=CARTESIAN_POINT('Ctrl Pts',(67.7477612070718,108.910550853724,-44.0051244887085));
#336=CARTESIAN_POINT('Ctrl Pts',(61.3422522074107,108.920068208721,-52.5529664117921));
#337=CARTESIAN_POINT('Ctrl Pts',(45.5710130915812,108.94233410127,-66.6678538579405));
#338=CARTESIAN_POINT('Ctrl Pts',(36.3583204752947,108.954844167679,-72.0929265518337));
#339=CARTESIAN_POINT('Ctrl Pts',(16.650309362072,108.98014299661,-78.9401499592358));
#340=CARTESIAN_POINT('Ctrl Pts',(6.38370411105763,108.992676208732,-80.4115842123104));
#341=CARTESIAN_POINT('Ctrl Pts',(-13.9713386937565,109.01629623803,-79.3995119025915));
#342=CARTESIAN_POINT('Ctrl Pts',(-23.8770623391183,109.027200463276,-76.9910534548315));
#343=CARTESIAN_POINT('Ctrl Pts',(-42.2346796610934,109.046614929143,-68.6304538223741));
#344=CARTESIAN_POINT('Ctrl Pts',(-50.5277944242897,109.054970885333,-62.7655391537141));
#345=CARTESIAN_POINT('Ctrl Pts',(-64.56572770752,109.068751591015,-48.2025357262764));
#346=CARTESIAN_POINT('Ctrl Pts',(-70.1590505075538,109.074032367372,-39.611624287391));
#347=CARTESIAN_POINT('Ctrl Pts',(-77.9056526610825,109.0812757937,-20.614682031941));
#348=CARTESIAN_POINT('Ctrl Pts',(-79.9168910164461,109.083108983554,-10.3563123578456));
#349=CARTESIAN_POINT('Ctrl Pts',(-79.9168910164461,109.083108983554,6.66133814775094E-15));
#350=CARTESIAN_POINT('Ctrl Pts',(-79.9168910164461,109.083108983554,-3.33066907387547E-15));
#351=CARTESIAN_POINT('Ctrl Pts',(-79.9168910164461,109.083108983554,6.51735128720474));
#352=CARTESIAN_POINT('Ctrl Pts',(-79.1203724765917,109.082379381719,13.0103273965705));
#353=CARTESIAN_POINT('Ctrl Pts',(-76.0047105000692,109.079496028137,25.5183059765998));
#354=CARTESIAN_POINT('Ctrl Pts',(-73.7308631220366,109.077384137435,31.4959896954752));
#355=CARTESIAN_POINT('Ctrl Pts',(-65.8554125249883,109.069950504901,46.5189065397614));
#356=CARTESIAN_POINT('Ctrl Pts',(-59.1252689214816,109.063506262614,54.828617079836));
#357=CARTESIAN_POINT('Ctrl Pts',(-42.8207527228055,109.047182767012,68.3444336803536));
#358=CARTESIAN_POINT('Ctrl Pts',(-33.4075364174361,109.037452983521,73.417105117421));
#359=CARTESIAN_POINT('Ctrl Pts',(-13.1060721757223,109.015314735953,79.6175437728701));
#360=CARTESIAN_POINT('Ctrl Pts',(-2.41342161135316,109.003101011228,80.6650597342172));
#361=CARTESIAN_POINT('Ctrl Pts',(18.4629955067643,108.977896951966,78.5473079673638));
#362=CARTESIAN_POINT('Ctrl Pts',(28.4561061557985,108.965170087189,75.5172070882899));
#363=CARTESIAN_POINT('Ctrl Pts',(46.4588166337794,108.941143931592,65.9672081352773));
#364=CARTESIAN_POINT('Ctrl Pts',(54.3596397869142,108.930035464117,59.6397700062811));
#365=CARTESIAN_POINT('Ctrl Pts',(67.3396887819757,108.911210797436,44.476084841671));
#366=CARTESIAN_POINT('Ctrl Pts',(72.3353978449994,108.903642170567,35.7988566087335));
#367=CARTESIAN_POINT('Ctrl Pts',(78.592398201424,108.894059830411,17.9265450641312));
#368=CARTESIAN_POINT('Ctrl Pts',(80.1083201890373,108.891679810963,8.99035357467172));
#369=CARTESIAN_POINT('Ctrl Pts',(80.1083201890373,108.891679810963,1.77635683940025E-14));
#370=CARTESIAN_POINT('Origin',(0.,104.041554491777,0.));
#371=CARTESIAN_POINT('',(90.,99.,-1.10218211923262E-14));
#372=CARTESIAN_POINT('',(84.958445508223,104.041554491777,-1.0404408835218E-14));
#373=CARTESIAN_POINT('Origin',(0.,99.,0.));
#374=CARTESIAN_POINT('Origin',(43.7404186223259,332.241464642852,0.));
#375=CARTESIAN_POINT('',(-59.156732945949,257.320331448436,0.));
#376=CARTESIAN_POINT('Origin',(18.1173331571764,236.614807840234,0.));
#377=CARTESIAN_POINT('',(-33.5336474807996,352.946988251054,9.79717439317883E-15));
#378=CARTESIAN_POINT('',(-33.5336474807996,352.946988251054,-9.79717439317883E-15));
#379=CARTESIAN_POINT('Origin',(43.7404186223259,332.241464642852,0.));
#380=CARTESIAN_POINT('Origin',(43.7404186223259,332.241464642852,0.));
#381=CARTESIAN_POINT('',(130.673742988342,308.947750583625,1.10218211923262E-14));
#382=CARTESIAN_POINT('',(130.673742988342,308.947750583625,1.10218211923262E-14));
#383=CARTESIAN_POINT('Origin',(43.7404186223259,332.241464642852,0.));
#384=CARTESIAN_POINT('Origin',(43.7404186223259,332.241464642852,0.));
#385=CARTESIAN_POINT('Origin',(0.,0.,0.));
#386=CARTESIAN_POINT('',(-80.,99.,9.79717439317883E-15));
#387=CARTESIAN_POINT('Origin',(-1.39664899375665E-30,99.,0.));
#388=CARTESIAN_POINT('',(-80.,0.,9.79717439317883E-15));
#389=CARTESIAN_POINT('',(-80.,0.,9.79717439317883E-15));
#390=CARTESIAN_POINT('Origin',(0.,0.,0.));
#391=CARTESIAN_POINT('Origin',(0.,0.,0.));
#392=CARTESIAN_POINT('',(90.,0.,-1.10218211923262E-14));
#393=CARTESIAN_POINT('',(90.,0.,-1.10218211923262E-14));
#394=CARTESIAN_POINT('Origin',(0.,0.,0.));
#395=CARTESIAN_POINT('Origin',(0.,0.,0.));
#396=CARTESIAN_POINT('Origin',(531.702787890758,99.,0.));
#397=CARTESIAN_POINT('',(85.7321409974111,218.497474683058,8.57252759403147E-15));
#398=CARTESIAN_POINT('Origin',(18.1173331571764,236.614807840234,0.));
#399=CARTESIAN_POINT('',(70.,99.,8.57252759403147E-15));
#400=CARTESIAN_POINT('Origin',(531.702787890758,99.,8.57252759403147E-15));
#401=CARTESIAN_POINT('Origin',(-1.39664899375665E-30,99.,0.));
#402=CARTESIAN_POINT('Origin',(18.1173331571764,236.614807840234,0.));
#403=CARTESIAN_POINT('Origin',(-5.23659497832843E-63,99.,0.));
#404=UNCERTAINTY_MEASURE_WITH_UNIT(LENGTH_MEASURE(0.01),#408,
'DISTANCE_ACCURACY_VALUE',
'Maximum model space distance between geometric entities at asserted c
onnectivities');
#405=UNCERTAINTY_MEASURE_WITH_UNIT(LENGTH_MEASURE(0.01),#408,
'DISTANCE_ACCURACY_VALUE',
'Maximum model space distance between geometric entities at asserted c
onnectivities');
#406=(
GEOMETRIC_REPRESENTATION_CONTEXT(3)
GLOBAL_UNCERTAINTY_ASSIGNED_CONTEXT((#404))
GLOBAL_UNIT_ASSIGNED_CONTEXT((#408,#410,#411))
REPRESENTATION_CONTEXT('','3D')
);
#407=(
GEOMETRIC_REPRESENTATION_CONTEXT(3)
GLOBAL_UNCERTAINTY_ASSIGNED_CONTEXT((#405))
GLOBAL_UNIT_ASSIGNED_CONTEXT((#408,#410,#411))
REPRESENTATION_CONTEXT('','3D')
);
#408=(
LENGTH_UNIT()
NAMED_UNIT(*)
SI_UNIT(.MILLI.,.METRE.)
);
#409=(
LENGTH_UNIT()
NAMED_UNIT(*)
SI_UNIT(.CENTI.,.METRE.)
);
#410=(
NAMED_UNIT(*)
PLANE_ANGLE_UNIT()
SI_UNIT($,.RADIAN.)
);
#411=(
NAMED_UNIT(*)
SI_UNIT($,.STERADIAN.)
SOLID_ANGLE_UNIT()
);
#412=SHAPE_DEFINITION_REPRESENTATION(#413,#414);
#413=PRODUCT_DEFINITION_SHAPE('',$,#416);
#414=SHAPE_REPRESENTATION('',(#198),#406);
#415=PRODUCT_DEFINITION_CONTEXT('part definition',#420,'design');
#416=PRODUCT_DEFINITION('KLIIV160','KLIIV160',#417,#415);
#417=PRODUCT_DEFINITION_FORMATION('0',$,#422);
#418=PRODUCT_RELATED_PRODUCT_CATEGORY('KLIIV160','KLIIV160',(#422));
#419=APPLICATION_PROTOCOL_DEFINITION('international standard',
'automotive_design',2009,#420);
#420=APPLICATION_CONTEXT(
'Core Data for Automotive Mechanical Design Process');
#421=PRODUCT_CONTEXT('part definition',#420,'mechanical');
#422=PRODUCT('KLIIV160','KLIIV160','PVC Bend 15\X\B0, \X\D8160, PN12,5',
(#421));
#423=PRESENTATION_STYLE_ASSIGNMENT((#424));
#424=SURFACE_STYLE_USAGE(.BOTH.,#427);
#425=SURFACE_STYLE_RENDERING_WITH_PROPERTIES($,#431,(#426));
#426=SURFACE_STYLE_TRANSPARENT(0.);
#427=SURFACE_SIDE_STYLE('',(#428,#425));
#428=SURFACE_STYLE_FILL_AREA(#429);
#429=FILL_AREA_STYLE('',(#430));
#430=FILL_AREA_STYLE_COLOUR('',#431);
#431=COLOUR_RGB('',0.250980392156863,0.290196078431373,0.329411764705882);
ENDSEC;
END-ISO-10303-21;
