ISO-10303-21;
HEADER;
/* Generated by software containing ST-Developer
 * from STEP Tools, Inc. (www.steptools.com) 
 */

FILE_DESCRIPTION(
/* description */ ('PVC Bend 15°, Ø200, PN12,5'),
/* implementation_level */ '2;1');

FILE_NAME(
/* name */ 
'KLIIV200',
/* time_stamp */ '2022-05-11T16:00:51+02:00',
/* author */ ('COAB Solutions'),
/* organization */ ('GPA Flowsystem'),
/* preprocessor_version */ 'ST-DEVELOPER v18.1',
/* originating_system */ 'www.coabsolutions.com',
/* authorisation */ '');

FILE_SCHEMA (('AUTOMOTIVE_DESIGN { 1 0 10303 214 3 1 1 }'));
ENDSEC;

DATA;
#10=MECHANICAL_DESIGN_GEOMETRIC_PRESENTATION_REPRESENTATION('',(#13),#407);
#11=SHAPE_REPRESENTATION_RELATIONSHIP('SRR','None',#414,#12);
#12=ADVANCED_BREP_SHAPE_REPRESENTATION('',(#14),#406);
#13=STYLED_ITEM('',(#423),#14);
#14=MANIFOLD_SOLID_BREP('Solid2',#179);
#15=FACE_BOUND('',#47,.T.);
#16=FACE_BOUND('',#51,.T.);
#17=FACE_BOUND('',#54,.T.);
#18=FACE_BOUND('',#56,.T.);
#19=PLANE('',#210);
#20=PLANE('',#216);
#21=PLANE('',#221);
#22=PLANE('',#222);
#23=CYLINDRICAL_SURFACE('',#205,100.);
#24=CYLINDRICAL_SURFACE('',#208,111.5);
#25=CYLINDRICAL_SURFACE('',#211,100.);
#26=CYLINDRICAL_SURFACE('',#214,111.5);
#27=TOROIDAL_SURFACE('',#201,660.830607807087,100.);
#28=TOROIDAL_SURFACE('',#217,660.830607807087,88.5);
#29=FACE_OUTER_BOUND('',#41,.T.);
#30=FACE_OUTER_BOUND('',#42,.T.);
#31=FACE_OUTER_BOUND('',#43,.T.);
#32=FACE_OUTER_BOUND('',#44,.T.);
#33=FACE_OUTER_BOUND('',#45,.T.);
#34=FACE_OUTER_BOUND('',#46,.T.);
#35=FACE_OUTER_BOUND('',#48,.T.);
#36=FACE_OUTER_BOUND('',#49,.T.);
#37=FACE_OUTER_BOUND('',#50,.T.);
#38=FACE_OUTER_BOUND('',#52,.T.);
#39=FACE_OUTER_BOUND('',#53,.T.);
#40=FACE_OUTER_BOUND('',#55,.T.);
#41=EDGE_LOOP('',(#121,#122,#123,#124,#125));
#42=EDGE_LOOP('',(#126,#127,#128,#129,#130,#131));
#43=EDGE_LOOP('',(#132,#133,#134,#135,#136));
#44=EDGE_LOOP('',(#137,#138,#139,#140));
#45=EDGE_LOOP('',(#141,#142,#143,#144));
#46=EDGE_LOOP('',(#145));
#47=EDGE_LOOP('',(#146));
#48=EDGE_LOOP('',(#147,#148,#149,#150));
#49=EDGE_LOOP('',(#151,#152,#153,#154));
#50=EDGE_LOOP('',(#155));
#51=EDGE_LOOP('',(#156));
#52=EDGE_LOOP('',(#157,#158,#159,#160));
#53=EDGE_LOOP('',(#161));
#54=EDGE_LOOP('',(#162));
#55=EDGE_LOOP('',(#163));
#56=EDGE_LOOP('',(#164));
#57=B_SPLINE_CURVE_WITH_KNOTS('',3,(#286,#287,#288,#289,#290,#291,#292,
#293,#294,#295,#296,#297,#298,#299,#300,#301,#302,#303,#304,#305),
 .UNSPECIFIED.,.F.,.F.,(4,2,2,2,2,2,2,2,2,4),(-63.0244219402589,-60.8125286467181,
-58.6012672214669,-54.6922410104497,-50.7822165120613,-46.8726381446834,
-42.9654794972679,-39.0616733099134,-35.1592291727478,-31.5162589267192),
 .UNSPECIFIED.);
#58=B_SPLINE_CURVE_WITH_KNOTS('',3,(#306,#307,#308,#309,#310,#311,#312,
#313,#314,#315,#316,#317,#318,#319,#320,#321,#322,#323,#324,#325),
 .UNSPECIFIED.,.F.,.F.,(4,2,2,2,2,2,2,2,2,4),(-31.5162589267192,-31.2542080837486,
-27.3450380826357,-23.4342791777638,-19.5252219562274,-15.6188697497184,
-11.7143224497276,-7.81026606720142,-3.90570411920958,0.),.UNSPECIFIED.);
#59=B_SPLINE_CURVE_WITH_KNOTS('',3,(#330,#331,#332,#333,#334,#335,#336,
#337,#338,#339,#340,#341,#342,#343,#344,#345,#346,#347,#348,#349),
 .UNSPECIFIED.,.F.,.F.,(4,2,2,2,2,2,2,2,2,4),(-31.5145311132425,-31.0098347805549,
-27.0386896270688,-23.0723662913752,-19.1022696095159,-15.2506313046119,
-11.4642520833821,-7.69124775600377,-3.88324466612077,0.),.UNSPECIFIED.);
#60=B_SPLINE_CURVE_WITH_KNOTS('',3,(#350,#351,#352,#353,#354,#355,#356,
#357,#358,#359,#360,#361,#362,#363,#364,#365,#366,#367,#368,#369),
 .UNSPECIFIED.,.F.,.F.,(4,2,2,2,2,2,2,2,2,4),(-63.022904335867,-60.6354836443748,
-58.2996781236804,-54.3288044204304,-50.3582558540549,-46.364444646248,
-42.4814252761858,-38.7184378596853,-35.0012905396003,-31.5145311132425),
 .UNSPECIFIED.);
#61=LINE('',#284,#67);
#62=LINE('',#372,#68);
#63=LINE('',#378,#69);
#64=LINE('',#382,#70);
#65=LINE('',#389,#71);
#66=LINE('',#393,#72);
#67=VECTOR('',#229,105.705872088768);
#68=VECTOR('',#236,105.705872088768);
#69=VECTOR('',#243,100.);
#70=VECTOR('',#248,111.5);
#71=VECTOR('',#257,100.);
#72=VECTOR('',#262,111.5);
#73=CIRCLE('',#200,111.5);
#74=CIRCLE('',#202,560.830607807087);
#75=CIRCLE('',#204,111.5);
#76=CIRCLE('',#206,100.);
#77=CIRCLE('',#207,100.);
#78=CIRCLE('',#209,111.5);
#79=CIRCLE('',#212,100.);
#80=CIRCLE('',#213,100.);
#81=CIRCLE('',#215,111.5);
#82=CIRCLE('',#218,88.5);
#83=CIRCLE('',#219,572.330607807087);
#84=CIRCLE('',#220,88.5);
#85=VERTEX_POINT('',#281);
#86=VERTEX_POINT('',#283);
#87=VERTEX_POINT('',#285);
#88=VERTEX_POINT('',#327);
#89=VERTEX_POINT('',#329);
#90=VERTEX_POINT('',#371);
#91=VERTEX_POINT('',#375);
#92=VERTEX_POINT('',#377);
#93=VERTEX_POINT('',#381);
#94=VERTEX_POINT('',#386);
#95=VERTEX_POINT('',#388);
#96=VERTEX_POINT('',#392);
#97=VERTEX_POINT('',#397);
#98=VERTEX_POINT('',#399);
#99=EDGE_CURVE('',#85,#85,#73,.T.);
#100=EDGE_CURVE('',#85,#86,#61,.T.);
#101=EDGE_CURVE('',#87,#86,#57,.T.);
#102=EDGE_CURVE('',#86,#87,#58,.T.);
#103=EDGE_CURVE('',#86,#88,#74,.T.);
#104=EDGE_CURVE('',#88,#89,#59,.T.);
#105=EDGE_CURVE('',#89,#88,#60,.T.);
#106=EDGE_CURVE('',#88,#90,#62,.T.);
#107=EDGE_CURVE('',#90,#90,#75,.T.);
#108=EDGE_CURVE('',#91,#91,#76,.T.);
#109=EDGE_CURVE('',#91,#92,#63,.T.);
#110=EDGE_CURVE('',#92,#92,#77,.T.);
#111=EDGE_CURVE('',#85,#93,#64,.T.);
#112=EDGE_CURVE('',#93,#93,#78,.T.);
#113=EDGE_CURVE('',#94,#94,#79,.T.);
#114=EDGE_CURVE('',#94,#95,#65,.T.);
#115=EDGE_CURVE('',#95,#95,#80,.T.);
#116=EDGE_CURVE('',#90,#96,#66,.T.);
#117=EDGE_CURVE('',#96,#96,#81,.T.);
#118=EDGE_CURVE('',#97,#97,#82,.T.);
#119=EDGE_CURVE('',#97,#98,#83,.T.);
#120=EDGE_CURVE('',#98,#98,#84,.T.);
#121=ORIENTED_EDGE('',*,*,#99,.T.);
#122=ORIENTED_EDGE('',*,*,#100,.T.);
#123=ORIENTED_EDGE('',*,*,#101,.F.);
#124=ORIENTED_EDGE('',*,*,#102,.F.);
#125=ORIENTED_EDGE('',*,*,#100,.F.);
#126=ORIENTED_EDGE('',*,*,#101,.T.);
#127=ORIENTED_EDGE('',*,*,#103,.T.);
#128=ORIENTED_EDGE('',*,*,#104,.T.);
#129=ORIENTED_EDGE('',*,*,#105,.T.);
#130=ORIENTED_EDGE('',*,*,#103,.F.);
#131=ORIENTED_EDGE('',*,*,#102,.T.);
#132=ORIENTED_EDGE('',*,*,#105,.F.);
#133=ORIENTED_EDGE('',*,*,#104,.F.);
#134=ORIENTED_EDGE('',*,*,#106,.T.);
#135=ORIENTED_EDGE('',*,*,#107,.T.);
#136=ORIENTED_EDGE('',*,*,#106,.F.);
#137=ORIENTED_EDGE('',*,*,#108,.F.);
#138=ORIENTED_EDGE('',*,*,#109,.T.);
#139=ORIENTED_EDGE('',*,*,#110,.F.);
#140=ORIENTED_EDGE('',*,*,#109,.F.);
#141=ORIENTED_EDGE('',*,*,#99,.F.);
#142=ORIENTED_EDGE('',*,*,#111,.T.);
#143=ORIENTED_EDGE('',*,*,#112,.F.);
#144=ORIENTED_EDGE('',*,*,#111,.F.);
#145=ORIENTED_EDGE('',*,*,#112,.T.);
#146=ORIENTED_EDGE('',*,*,#110,.T.);
#147=ORIENTED_EDGE('',*,*,#113,.T.);
#148=ORIENTED_EDGE('',*,*,#114,.T.);
#149=ORIENTED_EDGE('',*,*,#115,.T.);
#150=ORIENTED_EDGE('',*,*,#114,.F.);
#151=ORIENTED_EDGE('',*,*,#107,.F.);
#152=ORIENTED_EDGE('',*,*,#116,.T.);
#153=ORIENTED_EDGE('',*,*,#117,.T.);
#154=ORIENTED_EDGE('',*,*,#116,.F.);
#155=ORIENTED_EDGE('',*,*,#117,.F.);
#156=ORIENTED_EDGE('',*,*,#115,.F.);
#157=ORIENTED_EDGE('',*,*,#118,.F.);
#158=ORIENTED_EDGE('',*,*,#119,.T.);
#159=ORIENTED_EDGE('',*,*,#120,.T.);
#160=ORIENTED_EDGE('',*,*,#119,.F.);
#161=ORIENTED_EDGE('',*,*,#108,.T.);
#162=ORIENTED_EDGE('',*,*,#118,.T.);
#163=ORIENTED_EDGE('',*,*,#113,.F.);
#164=ORIENTED_EDGE('',*,*,#120,.F.);
#165=CONICAL_SURFACE('',#199,105.705872088768,0.785398163397446);
#166=CONICAL_SURFACE('',#203,105.705872088768,0.785398163397445);
#167=ADVANCED_FACE('',(#29),#165,.T.);
#168=ADVANCED_FACE('',(#30),#27,.T.);
#169=ADVANCED_FACE('',(#31),#166,.T.);
#170=ADVANCED_FACE('',(#32),#23,.F.);
#171=ADVANCED_FACE('',(#33),#24,.T.);
#172=ADVANCED_FACE('',(#34,#15),#19,.T.);
#173=ADVANCED_FACE('',(#35),#25,.F.);
#174=ADVANCED_FACE('',(#36),#26,.T.);
#175=ADVANCED_FACE('',(#37,#16),#20,.F.);
#176=ADVANCED_FACE('',(#38),#28,.F.);
#177=ADVANCED_FACE('',(#39,#17),#21,.T.);
#178=ADVANCED_FACE('',(#40,#18),#22,.F.);
#179=CLOSED_SHELL('',(#167,#168,#169,#170,#171,#172,#173,#174,#175,#176,
#177,#178));
#180=DERIVED_UNIT_ELEMENT(#182,1.);
#181=DERIVED_UNIT_ELEMENT(#409,-3.);
#182=(
MASS_UNIT()
NAMED_UNIT(*)
SI_UNIT($,.GRAM.)
);
#183=DERIVED_UNIT((#180,#181));
#184=MEASURE_REPRESENTATION_ITEM('density measure',
POSITIVE_RATIO_MEASURE(1.),#183);
#185=PROPERTY_DEFINITION_REPRESENTATION(#190,#187);
#186=PROPERTY_DEFINITION_REPRESENTATION(#191,#188);
#187=REPRESENTATION('material name',(#189),#406);
#188=REPRESENTATION('density',(#184),#406);
#189=DESCRIPTIVE_REPRESENTATION_ITEM('PVC','PVC');
#190=PROPERTY_DEFINITION('material property','material name',#416);
#191=PROPERTY_DEFINITION('material property','density of part',#416);
#192=DATE_TIME_ROLE('creation_date');
#193=APPLIED_DATE_AND_TIME_ASSIGNMENT(#194,#192,(#416));
#194=DATE_AND_TIME(#195,#196);
#195=CALENDAR_DATE(2021,19,10);
#196=LOCAL_TIME(0,0,0.,#197);
#197=COORDINATED_UNIVERSAL_TIME_OFFSET(0,0,.BEHIND.);
#198=AXIS2_PLACEMENT_3D('placement',#279,#223,#224);
#199=AXIS2_PLACEMENT_3D('',#280,#225,#226);
#200=AXIS2_PLACEMENT_3D('',#282,#227,#228);
#201=AXIS2_PLACEMENT_3D('',#326,#230,#231);
#202=AXIS2_PLACEMENT_3D('',#328,#232,#233);
#203=AXIS2_PLACEMENT_3D('',#370,#234,#235);
#204=AXIS2_PLACEMENT_3D('',#373,#237,#238);
#205=AXIS2_PLACEMENT_3D('',#374,#239,#240);
#206=AXIS2_PLACEMENT_3D('',#376,#241,#242);
#207=AXIS2_PLACEMENT_3D('',#379,#244,#245);
#208=AXIS2_PLACEMENT_3D('',#380,#246,#247);
#209=AXIS2_PLACEMENT_3D('',#383,#249,#250);
#210=AXIS2_PLACEMENT_3D('',#384,#251,#252);
#211=AXIS2_PLACEMENT_3D('',#385,#253,#254);
#212=AXIS2_PLACEMENT_3D('',#387,#255,#256);
#213=AXIS2_PLACEMENT_3D('',#390,#258,#259);
#214=AXIS2_PLACEMENT_3D('',#391,#260,#261);
#215=AXIS2_PLACEMENT_3D('',#394,#263,#264);
#216=AXIS2_PLACEMENT_3D('',#395,#265,#266);
#217=AXIS2_PLACEMENT_3D('',#396,#267,#268);
#218=AXIS2_PLACEMENT_3D('',#398,#269,#270);
#219=AXIS2_PLACEMENT_3D('',#400,#271,#272);
#220=AXIS2_PLACEMENT_3D('',#401,#273,#274);
#221=AXIS2_PLACEMENT_3D('',#402,#275,#276);
#222=AXIS2_PLACEMENT_3D('',#403,#277,#278);
#223=DIRECTION('axis',(0.,0.,1.));
#224=DIRECTION('refdir',(1.,0.,0.));
#225=DIRECTION('center_axis',(0.25881904510252,0.965925826289068,0.));
#226=DIRECTION('ref_axis',(-0.965925826289068,0.25881904510252,0.));
#227=DIRECTION('center_axis',(-0.25881904510252,-0.965925826289068,0.));
#228=DIRECTION('ref_axis',(-0.965925826289068,0.25881904510252,0.));
#229=DIRECTION('',(-0.866025403784437,-0.500000000000003,8.65956056235491E-17));
#230=DIRECTION('center_axis',(0.,0.,-1.));
#231=DIRECTION('ref_axis',(-1.,0.,0.));
#232=DIRECTION('center_axis',(0.,0.,1.));
#233=DIRECTION('ref_axis',(-1.,0.,0.));
#234=DIRECTION('center_axis',(0.,-1.,0.));
#235=DIRECTION('ref_axis',(-1.,0.,0.));
#236=DIRECTION('',(0.707106781186545,-0.70710678118655,-8.65956056235491E-17));
#237=DIRECTION('center_axis',(0.,1.,0.));
#238=DIRECTION('ref_axis',(-1.,0.,0.));
#239=DIRECTION('center_axis',(-0.25881904510252,-0.965925826289068,0.));
#240=DIRECTION('ref_axis',(0.965925826289069,-0.25881904510252,0.));
#241=DIRECTION('center_axis',(0.258819045102521,0.965925826289068,0.));
#242=DIRECTION('ref_axis',(-0.965925826289068,0.258819045102521,0.));
#243=DIRECTION('',(0.25881904510252,0.965925826289069,0.));
#244=DIRECTION('center_axis',(-0.25881904510252,-0.965925826289068,0.));
#245=DIRECTION('ref_axis',(0.965925826289068,-0.25881904510252,0.));
#246=DIRECTION('center_axis',(-0.25881904510252,-0.965925826289068,0.));
#247=DIRECTION('ref_axis',(-0.965925826289069,0.25881904510252,0.));
#248=DIRECTION('',(0.25881904510252,0.965925826289069,0.));
#249=DIRECTION('center_axis',(0.25881904510252,0.965925826289068,0.));
#250=DIRECTION('ref_axis',(-0.965925826289068,0.25881904510252,0.));
#251=DIRECTION('center_axis',(0.25881904510252,0.965925826289068,0.));
#252=DIRECTION('ref_axis',(0.,0.,1.));
#253=DIRECTION('center_axis',(0.,1.,0.));
#254=DIRECTION('ref_axis',(1.,0.,0.));
#255=DIRECTION('center_axis',(-6.12323399573677E-17,1.,0.));
#256=DIRECTION('ref_axis',(-1.,-6.12323399573677E-17,0.));
#257=DIRECTION('',(0.,-1.,0.));
#258=DIRECTION('center_axis',(0.,-1.,0.));
#259=DIRECTION('ref_axis',(1.,0.,0.));
#260=DIRECTION('center_axis',(0.,1.,0.));
#261=DIRECTION('ref_axis',(-1.,0.,0.));
#262=DIRECTION('',(0.,-1.,0.));
#263=DIRECTION('center_axis',(0.,1.,0.));
#264=DIRECTION('ref_axis',(-1.,0.,0.));
#265=DIRECTION('center_axis',(0.,1.,0.));
#266=DIRECTION('ref_axis',(0.,0.,1.));
#267=DIRECTION('center_axis',(0.,0.,-1.));
#268=DIRECTION('ref_axis',(-1.,0.,0.));
#269=DIRECTION('center_axis',(-0.258819045102521,-0.965925826289068,0.));
#270=DIRECTION('ref_axis',(0.965925826289068,-0.258819045102521,0.));
#271=DIRECTION('center_axis',(0.,0.,1.));
#272=DIRECTION('ref_axis',(-1.,0.,0.));
#273=DIRECTION('center_axis',(6.12323399573677E-17,-1.,0.));
#274=DIRECTION('ref_axis',(1.,6.12323399573677E-17,0.));
#275=DIRECTION('center_axis',(0.258819045102521,0.965925826289068,0.));
#276=DIRECTION('ref_axis',(0.,0.,1.));
#277=DIRECTION('center_axis',(-6.12323399573677E-17,1.,0.));
#278=DIRECTION('ref_axis',(0.,0.,1.));
#279=CARTESIAN_POINT('',(0.,0.,0.));
#280=CARTESIAN_POINT('Origin',(21.0176262707324,287.438849096867,0.));
#281=CARTESIAN_POINT('',(130.217986555151,264.177223358218,-1.3654811810493E-14));
#282=CARTESIAN_POINT('Origin',(22.5172569239194,293.035546887149,0.));
#283=CARTESIAN_POINT('',(116.274951685571,256.127208422946,-1.16814251097738E-14));
#284=CARTESIAN_POINT('',(123.121658111682,260.080156221123,-1.29452357904589E-14));
#285=CARTESIAN_POINT('',(-76.9893384331224,307.701213529142,0.));
#286=CARTESIAN_POINT('Ctrl Pts',(-76.9893384331223,307.701213529142,2.22044604925031E-15));
#287=CARTESIAN_POINT('Ctrl Pts',(-76.9893384331223,307.701213529142,-7.37297764513588));
#288=CARTESIAN_POINT('Ctrl Pts',(-76.2014650040112,307.490759396044,-14.7233757170007));
#289=CARTESIAN_POINT('Ctrl Pts',(-73.0791885084427,306.656769607778,-29.1086796183232));
#290=CARTESIAN_POINT('Ctrl Pts',(-70.7547834437776,306.035904703923,-36.0996476659421));
#291=CARTESIAN_POINT('Ctrl Pts',(-62.3255562089158,303.784499047013,-54.5408702633612));
#292=CARTESIAN_POINT('Ctrl Pts',(-54.7691076867069,301.766289437846,-65.1172585397402));
#293=CARTESIAN_POINT('Ctrl Pts',(-36.1603524762867,296.796888369846,-82.676543324126));
#294=CARTESIAN_POINT('Ctrl Pts',(-25.2854059449596,293.893072204497,-89.4903277411991));
#295=CARTESIAN_POINT('Ctrl Pts',(-1.62438185142893,287.576323007273,-98.4157108896761));
#296=CARTESIAN_POINT('Ctrl Pts',(10.9350487432647,284.223911418042,-100.442434605158));
#297=CARTESIAN_POINT('Ctrl Pts',(36.0896638989078,277.511016098057,-99.3967068211055));
#298=CARTESIAN_POINT('Ctrl Pts',(48.4445384422617,274.214670221322,-96.337399664353));
#299=CARTESIAN_POINT('Ctrl Pts',(71.3163059986978,268.113694705875,-85.4945186090091));
#300=CARTESIAN_POINT('Ctrl Pts',(81.6166474240701,265.366820530014,-77.8184009292028));
#301=CARTESIAN_POINT('Ctrl Pts',(98.7946204765985,260.786609940173,-58.817726113357));
#302=CARTESIAN_POINT('Ctrl Pts',(105.509581286295,258.996621135783,-47.6756762449885));
#303=CARTESIAN_POINT('Ctrl Pts',(114.142276994574,256.695582543438,-24.1645318244824));
#304=CARTESIAN_POINT('Ctrl Pts',(116.274951685571,256.127208422946,-12.1287477288904));
#305=CARTESIAN_POINT('Ctrl Pts',(116.274951685571,256.127208422946,-2.66453525910038E-14));
#306=CARTESIAN_POINT('Ctrl Pts',(116.274951685571,256.127208422946,-1.80411241501588E-14));
#307=CARTESIAN_POINT('Ctrl Pts',(116.274951685571,256.127208422946,0.872460753693823));
#308=CARTESIAN_POINT('Ctrl Pts',(116.263917050373,256.130149383525,1.7454025382741));
#309=CARTESIAN_POINT('Ctrl Pts',(115.912042192563,256.223931456826,15.6446942169003));
#310=CARTESIAN_POINT('Ctrl Pts',(113.124808326842,256.966752927769,28.4791693039148));
#311=CARTESIAN_POINT('Ctrl Pts',(102.948092271509,259.679435816376,52.323143719085));
#312=CARTESIAN_POINT('Ctrl Pts',(95.6543445236685,261.623804737423,63.1032452907588));
#313=CARTESIAN_POINT('Ctrl Pts',(77.4858512800701,266.468384902528,81.1553539721893));
#314=CARTESIAN_POINT('Ctrl Pts',(66.7865370829615,269.321841274645,88.2561429497425));
#315=CARTESIAN_POINT('Ctrl Pts',(43.3683052284038,275.568976694202,97.8080936584185));
#316=CARTESIAN_POINT('Ctrl Pts',(30.8743979922288,278.902635117476,100.171265925378));
#317=CARTESIAN_POINT('Ctrl Pts',(5.72081880838371,285.615644863325,99.8095062900705));
#318=CARTESIAN_POINT('Ctrl Pts',(-6.69881032947437,288.930922900975,97.0903760026154));
#319=CARTESIAN_POINT('Ctrl Pts',(-29.83174518352,295.106974196425,86.8814695187361));
#320=CARTESIAN_POINT('Ctrl Pts',(-40.3244932421945,297.908848744543,79.4897208012313));
#321=CARTESIAN_POINT('Ctrl Pts',(-57.9854649437979,302.625295430494,60.9601999635904));
#322=CARTESIAN_POINT('Ctrl Pts',(-64.9845425828845,304.494685319233,49.998948973089));
#323=CARTESIAN_POINT('Ctrl Pts',(-74.5327866312119,307.045015885535,25.9135100163188));
#324=CARTESIAN_POINT('Ctrl Pts',(-76.9893384331224,307.701213529142,13.0190137306986));
#325=CARTESIAN_POINT('Ctrl Pts',(-76.9893384331224,307.701213529142,-2.22044604925031E-15));
#326=CARTESIAN_POINT('Origin',(660.830607807087,122.,0.));
#327=CARTESIAN_POINT('',(100.115559701233,133.384440298767,1.27845721434877E-14));
#328=CARTESIAN_POINT('Origin',(660.830607807087,122.,1.22464679914735E-14));
#329=CARTESIAN_POINT('',(-99.9117441775351,133.588255822465,0.));
#330=CARTESIAN_POINT('Ctrl Pts',(100.115559701233,133.384440298767,2.77555756156289E-15));
#331=CARTESIAN_POINT('Ctrl Pts',(100.115559701233,133.384440298767,-1.67863671804959));
#332=CARTESIAN_POINT('Ctrl Pts',(100.073285335362,133.384496663624,-3.35883483713281));
#333=CARTESIAN_POINT('Ctrl Pts',(99.3213568731833,133.385498627084,-18.2593373711877));
#334=CARTESIAN_POINT('Ctrl Pts',(96.035366340924,133.389910111647,-31.2163536795956));
#335=CARTESIAN_POINT('Ctrl Pts',(84.61518743528,133.404683811192,-55.0830223392625));
#336=CARTESIAN_POINT('Ctrl Pts',(76.5995460441526,133.414864996814,-65.7597247580863));
#337=CARTESIAN_POINT('Ctrl Pts',(56.8712666954345,133.438651243659,-83.3850279693876));
#338=CARTESIAN_POINT('Ctrl Pts',(45.3498467760823,133.452001382382,-90.1561112995654));
#339=CARTESIAN_POINT('Ctrl Pts',(20.7139242126511,133.478959241803,-98.6913260569261));
#340=CARTESIAN_POINT('Ctrl Pts',(7.88589601615042,133.492295719861,-100.519598242217));
#341=CARTESIAN_POINT('Ctrl Pts',(-17.5419872331836,133.517402891188,-99.2375740242255));
#342=CARTESIAN_POINT('Ctrl Pts',(-29.9139197274958,133.528980688716,-96.221928594428));
#343=CARTESIAN_POINT('Ctrl Pts',(-52.8409714060518,133.549580597552,-85.7676635214378));
#344=CARTESIAN_POINT('Ctrl Pts',(-63.1980082458916,133.558439414947,-78.4378788254162));
#345=CARTESIAN_POINT('Ctrl Pts',(-80.7316974802307,133.573045445807,-60.2404423490299));
#346=CARTESIAN_POINT('Ctrl Pts',(-87.7186561804509,133.578639612277,-49.5059268046222));
#347=CARTESIAN_POINT('Ctrl Pts',(-97.3982197801944,133.586314024235,-25.7659198116336));
#348=CARTESIAN_POINT('Ctrl Pts',(-99.911744177535,133.588255822465,-12.9441488870692));
#349=CARTESIAN_POINT('Ctrl Pts',(-99.911744177535,133.588255822465,6.66133814775094E-15));
#350=CARTESIAN_POINT('Ctrl Pts',(-99.911744177535,133.588255822465,0.));
#351=CARTESIAN_POINT('Ctrl Pts',(-99.911744177535,133.588255822465,7.95806897164063));
#352=CARTESIAN_POINT('Ctrl Pts',(-98.9616824438879,133.587518050988,15.8877414176655));
#353=CARTESIAN_POINT('Ctrl Pts',(-95.2424697355122,133.584600989315,31.1862310780286));
#354=CARTESIAN_POINT('Ctrl Pts',(-92.5257938156533,133.582462808804,38.5112168907903));
#355=CARTESIAN_POINT('Ctrl Pts',(-82.9710823318208,133.574823672679,57.2366896104276));
#356=CARTESIAN_POINT('Ctrl Pts',(-74.6736576082581,133.56809607551,67.715796966843));
#357=CARTESIAN_POINT('Ctrl Pts',(-54.4815803110106,133.550970939063,84.8335782869544));
#358=CARTESIAN_POINT('Ctrl Pts',(-42.7866817390727,133.540730196252,91.303484249397));
#359=CARTESIAN_POINT('Ctrl Pts',(-17.4837596530265,133.51733674225,99.3382124058627));
#360=CARTESIAN_POINT('Ctrl Pts',(-4.11762249611826,133.504386085928,100.793836556509));
#361=CARTESIAN_POINT('Ctrl Pts',(22.031137247835,133.477576108202,98.4207658827991));
#362=CARTESIAN_POINT('Ctrl Pts',(34.5729555778253,133.463999511745,94.7599317244449));
#363=CARTESIAN_POINT('Ctrl Pts',(57.2088940556762,133.438289556558,83.0471156165159));
#364=CARTESIAN_POINT('Ctrl Pts',(67.1661247090224,133.426362151311,75.2381501012254));
#365=CARTESIAN_POINT('Ctrl Pts',(83.5723007104118,133.406067942738,56.4622921612039));
#366=CARTESIAN_POINT('Ctrl Pts',(89.9205327403738,133.397855638598,45.6974982376026));
#367=CARTESIAN_POINT('Ctrl Pts',(98.0976449935834,133.387153462905,23.119630328063));
#368=CARTESIAN_POINT('Ctrl Pts',(100.115559701233,133.384440298767,11.5970773334568));
#369=CARTESIAN_POINT('Ctrl Pts',(100.115559701233,133.384440298767,-1.55431223447522E-14));
#370=CARTESIAN_POINT('Origin',(0.,127.794127911233,0.));
#371=CARTESIAN_POINT('',(111.5,122.,-1.3654811810493E-14));
#372=CARTESIAN_POINT('',(105.705872088768,127.794127911233,-1.29452357904589E-14));
#373=CARTESIAN_POINT('Origin',(0.,122.,0.));
#374=CARTESIAN_POINT('Origin',(54.0931804264268,410.878497694415,0.));
#375=CARTESIAN_POINT('',(-74.0753257049877,318.917451397401,0.));
#376=CARTESIAN_POINT('Origin',(22.5172569239193,293.035546887149,0.));
#377=CARTESIAN_POINT('',(-42.49940220248,436.760402204667,1.22464679914735E-14));
#378=CARTESIAN_POINT('',(-42.49940220248,436.760402204667,-1.22464679914735E-14));
#379=CARTESIAN_POINT('Origin',(54.0931804264268,410.878497694415,0.));
#380=CARTESIAN_POINT('Origin',(54.0931804264268,410.878497694415,0.));
#381=CARTESIAN_POINT('',(161.793910057658,382.020174165484,1.3654811810493E-14));
#382=CARTESIAN_POINT('',(161.793910057658,382.020174165484,1.3654811810493E-14));
#383=CARTESIAN_POINT('Origin',(54.0931804264268,410.878497694415,0.));
#384=CARTESIAN_POINT('Origin',(54.0931804264268,410.878497694415,0.));
#385=CARTESIAN_POINT('Origin',(0.,0.,0.));
#386=CARTESIAN_POINT('',(-100.,122.,1.22464679914735E-14));
#387=CARTESIAN_POINT('Origin',(-1.39664899375665E-30,122.,0.));
#388=CARTESIAN_POINT('',(-100.,0.,1.22464679914735E-14));
#389=CARTESIAN_POINT('',(-100.,0.,1.22464679914735E-14));
#390=CARTESIAN_POINT('Origin',(0.,0.,0.));
#391=CARTESIAN_POINT('Origin',(0.,0.,0.));
#392=CARTESIAN_POINT('',(111.5,0.,-1.3654811810493E-14));
#393=CARTESIAN_POINT('',(111.5,0.,-1.3654811810493E-14));
#394=CARTESIAN_POINT('Origin',(0.,0.,0.));
#395=CARTESIAN_POINT('Origin',(0.,0.,0.));
#396=CARTESIAN_POINT('Origin',(660.830607807087,122.,0.));
#397=CARTESIAN_POINT('',(108.001692550502,270.130061395576,1.08381241724541E-14));
#398=CARTESIAN_POINT('Origin',(22.5172569239193,293.035546887149,0.));
#399=CARTESIAN_POINT('',(88.5,122.,1.08381241724541E-14));
#400=CARTESIAN_POINT('Origin',(660.830607807087,122.,1.08381241724541E-14));
#401=CARTESIAN_POINT('Origin',(-1.39664899375665E-30,122.,0.));
#402=CARTESIAN_POINT('Origin',(22.5172569239193,293.035546887149,0.));
#403=CARTESIAN_POINT('Origin',(-5.23659497832843E-63,122.,0.));
#404=UNCERTAINTY_MEASURE_WITH_UNIT(LENGTH_MEASURE(0.01),#408,
'DISTANCE_ACCURACY_VALUE',
'Maximum model space distance between geometric entities at asserted c
onnectivities');
#405=UNCERTAINTY_MEASURE_WITH_UNIT(LENGTH_MEASURE(0.01),#408,
'DISTANCE_ACCURACY_VALUE',
'Maximum model space distance between geometric entities at asserted c
onnectivities');
#406=(
GEOMETRIC_REPRESENTATION_CONTEXT(3)
GLOBAL_UNCERTAINTY_ASSIGNED_CONTEXT((#404))
GLOBAL_UNIT_ASSIGNED_CONTEXT((#408,#410,#411))
REPRESENTATION_CONTEXT('','3D')
);
#407=(
GEOMETRIC_REPRESENTATION_CONTEXT(3)
GLOBAL_UNCERTAINTY_ASSIGNED_CONTEXT((#405))
GLOBAL_UNIT_ASSIGNED_CONTEXT((#408,#410,#411))
REPRESENTATION_CONTEXT('','3D')
);
#408=(
LENGTH_UNIT()
NAMED_UNIT(*)
SI_UNIT(.MILLI.,.METRE.)
);
#409=(
LENGTH_UNIT()
NAMED_UNIT(*)
SI_UNIT(.CENTI.,.METRE.)
);
#410=(
NAMED_UNIT(*)
PLANE_ANGLE_UNIT()
SI_UNIT($,.RADIAN.)
);
#411=(
NAMED_UNIT(*)
SI_UNIT($,.STERADIAN.)
SOLID_ANGLE_UNIT()
);
#412=SHAPE_DEFINITION_REPRESENTATION(#413,#414);
#413=PRODUCT_DEFINITION_SHAPE('',$,#416);
#414=SHAPE_REPRESENTATION('',(#198),#406);
#415=PRODUCT_DEFINITION_CONTEXT('part definition',#420,'design');
#416=PRODUCT_DEFINITION('KLIIV200','KLIIV200',#417,#415);
#417=PRODUCT_DEFINITION_FORMATION('0',$,#422);
#418=PRODUCT_RELATED_PRODUCT_CATEGORY('KLIIV200','KLIIV200',(#422));
#419=APPLICATION_PROTOCOL_DEFINITION('international standard',
'automotive_design',2009,#420);
#420=APPLICATION_CONTEXT(
'Core Data for Automotive Mechanical Design Process');
#421=PRODUCT_CONTEXT('part definition',#420,'mechanical');
#422=PRODUCT('KLIIV200','KLIIV200','PVC Bend 15\X\B0, \X\D8200, PN12,5',
(#421));
#423=PRESENTATION_STYLE_ASSIGNMENT((#424));
#424=SURFACE_STYLE_USAGE(.BOTH.,#427);
#425=SURFACE_STYLE_RENDERING_WITH_PROPERTIES($,#431,(#426));
#426=SURFACE_STYLE_TRANSPARENT(0.);
#427=SURFACE_SIDE_STYLE('',(#428,#425));
#428=SURFACE_STYLE_FILL_AREA(#429);
#429=FILL_AREA_STYLE('',(#430));
#430=FILL_AREA_STYLE_COLOUR('',#431);
#431=COLOUR_RGB('',0.250980392156863,0.290196078431373,0.329411764705882);
ENDSEC;
END-ISO-10303-21;
