ISO-10303-21;
HEADER;
/* Generated by software containing ST-Developer
 * from STEP Tools, Inc. (www.steptools.com) 
 */

FILE_DESCRIPTION(
/* description */ ('PVC Male Coupling, Ø63, PN16'),
/* implementation_level */ '2;1');

FILE_NAME(
/* name */ 
'NDV063',
/* time_stamp */ '2022-05-11T16:01:55+02:00',
/* author */ ('COAB Solutions'),
/* organization */ ('GPA Flowsystem'),
/* preprocessor_version */ 'ST-DEVELOPER v18.1',
/* originating_system */ 'www.coabsolutions.com',
/* authorisation */ '');

FILE_SCHEMA (('AUTOMOTIVE_DESIGN { 1 0 10303 214 3 1 1 }'));
ENDSEC;

DATA;
#10=MECHANICAL_DESIGN_GEOMETRIC_PRESENTATION_REPRESENTATION('',(#13),#181);
#11=SHAPE_REPRESENTATION_RELATIONSHIP('SRR','None',#188,#12);
#12=ADVANCED_BREP_SHAPE_REPRESENTATION('',(#14),#180);
#13=STYLED_ITEM('',(#197),#14);
#14=MANIFOLD_SOLID_BREP('Solid3',#93);
#15=CONICAL_SURFACE('',#120,30.56,0.523598775598298);
#16=CONICAL_SURFACE('',#124,30.56,0.523598775598299);
#17=LINE('',#163,#21);
#18=LINE('',#171,#22);
#19=LINE('',#175,#23);
#20=LINE('',#177,#24);
#21=VECTOR('',#135,26.8);
#22=VECTOR('',#146,30.56);
#23=VECTOR('',#151,31.5);
#24=VECTOR('',#154,30.56);
#25=CYLINDRICAL_SURFACE('',#116,26.8);
#26=CYLINDRICAL_SURFACE('',#122,31.5);
#27=FACE_BOUND('',#36,.T.);
#28=FACE_BOUND('',#39,.T.);
#29=FACE_OUTER_BOUND('',#35,.T.);
#30=FACE_OUTER_BOUND('',#37,.T.);
#31=FACE_OUTER_BOUND('',#38,.T.);
#32=FACE_OUTER_BOUND('',#40,.T.);
#33=FACE_OUTER_BOUND('',#41,.T.);
#34=FACE_OUTER_BOUND('',#42,.T.);
#35=EDGE_LOOP('',(#65));
#36=EDGE_LOOP('',(#66));
#37=EDGE_LOOP('',(#67,#68,#69,#70));
#38=EDGE_LOOP('',(#71));
#39=EDGE_LOOP('',(#72));
#40=EDGE_LOOP('',(#73,#74,#75,#76));
#41=EDGE_LOOP('',(#77,#78,#79,#80));
#42=EDGE_LOOP('',(#81,#82,#83,#84));
#43=CIRCLE('',#114,29.62);
#44=CIRCLE('',#115,26.8);
#45=CIRCLE('',#117,26.8);
#46=CIRCLE('',#119,29.62);
#47=CIRCLE('',#121,31.5);
#48=CIRCLE('',#123,31.5);
#49=VERTEX_POINT('',#157);
#50=VERTEX_POINT('',#159);
#51=VERTEX_POINT('',#162);
#52=VERTEX_POINT('',#166);
#53=VERTEX_POINT('',#169);
#54=VERTEX_POINT('',#173);
#55=EDGE_CURVE('',#49,#49,#43,.T.);
#56=EDGE_CURVE('',#50,#50,#44,.T.);
#57=EDGE_CURVE('',#50,#51,#17,.T.);
#58=EDGE_CURVE('',#51,#51,#45,.T.);
#59=EDGE_CURVE('',#52,#52,#46,.T.);
#60=EDGE_CURVE('',#53,#53,#47,.T.);
#61=EDGE_CURVE('',#53,#52,#18,.T.);
#62=EDGE_CURVE('',#54,#54,#48,.T.);
#63=EDGE_CURVE('',#54,#53,#19,.T.);
#64=EDGE_CURVE('',#49,#54,#20,.T.);
#65=ORIENTED_EDGE('',*,*,#55,.T.);
#66=ORIENTED_EDGE('',*,*,#56,.F.);
#67=ORIENTED_EDGE('',*,*,#56,.T.);
#68=ORIENTED_EDGE('',*,*,#57,.T.);
#69=ORIENTED_EDGE('',*,*,#58,.F.);
#70=ORIENTED_EDGE('',*,*,#57,.F.);
#71=ORIENTED_EDGE('',*,*,#59,.F.);
#72=ORIENTED_EDGE('',*,*,#58,.T.);
#73=ORIENTED_EDGE('',*,*,#60,.F.);
#74=ORIENTED_EDGE('',*,*,#61,.T.);
#75=ORIENTED_EDGE('',*,*,#59,.T.);
#76=ORIENTED_EDGE('',*,*,#61,.F.);
#77=ORIENTED_EDGE('',*,*,#62,.F.);
#78=ORIENTED_EDGE('',*,*,#63,.T.);
#79=ORIENTED_EDGE('',*,*,#60,.T.);
#80=ORIENTED_EDGE('',*,*,#63,.F.);
#81=ORIENTED_EDGE('',*,*,#55,.F.);
#82=ORIENTED_EDGE('',*,*,#64,.T.);
#83=ORIENTED_EDGE('',*,*,#62,.T.);
#84=ORIENTED_EDGE('',*,*,#64,.F.);
#85=PLANE('',#113);
#86=PLANE('',#118);
#87=ADVANCED_FACE('',(#29,#27),#85,.T.);
#88=ADVANCED_FACE('',(#30),#25,.F.);
#89=ADVANCED_FACE('',(#31,#28),#86,.T.);
#90=ADVANCED_FACE('',(#32),#15,.T.);
#91=ADVANCED_FACE('',(#33),#26,.T.);
#92=ADVANCED_FACE('',(#34),#16,.T.);
#93=CLOSED_SHELL('',(#87,#88,#89,#90,#91,#92));
#94=DERIVED_UNIT_ELEMENT(#96,1.);
#95=DERIVED_UNIT_ELEMENT(#183,-3.);
#96=(
MASS_UNIT()
NAMED_UNIT(*)
SI_UNIT($,.GRAM.)
);
#97=DERIVED_UNIT((#94,#95));
#98=MEASURE_REPRESENTATION_ITEM('density measure',
POSITIVE_RATIO_MEASURE(1.),#97);
#99=PROPERTY_DEFINITION_REPRESENTATION(#104,#101);
#100=PROPERTY_DEFINITION_REPRESENTATION(#105,#102);
#101=REPRESENTATION('material name',(#103),#180);
#102=REPRESENTATION('density',(#98),#180);
#103=DESCRIPTIVE_REPRESENTATION_ITEM('PVC','PVC');
#104=PROPERTY_DEFINITION('material property','material name',#190);
#105=PROPERTY_DEFINITION('material property','density of part',#190);
#106=DATE_TIME_ROLE('creation_date');
#107=APPLIED_DATE_AND_TIME_ASSIGNMENT(#108,#106,(#190));
#108=DATE_AND_TIME(#109,#110);
#109=CALENDAR_DATE(2021,19,10);
#110=LOCAL_TIME(0,0,0.,#111);
#111=COORDINATED_UNIVERSAL_TIME_OFFSET(0,0,.BEHIND.);
#112=AXIS2_PLACEMENT_3D('placement',#155,#125,#126);
#113=AXIS2_PLACEMENT_3D('',#156,#127,#128);
#114=AXIS2_PLACEMENT_3D('',#158,#129,#130);
#115=AXIS2_PLACEMENT_3D('',#160,#131,#132);
#116=AXIS2_PLACEMENT_3D('',#161,#133,#134);
#117=AXIS2_PLACEMENT_3D('',#164,#136,#137);
#118=AXIS2_PLACEMENT_3D('',#165,#138,#139);
#119=AXIS2_PLACEMENT_3D('',#167,#140,#141);
#120=AXIS2_PLACEMENT_3D('',#168,#142,#143);
#121=AXIS2_PLACEMENT_3D('',#170,#144,#145);
#122=AXIS2_PLACEMENT_3D('',#172,#147,#148);
#123=AXIS2_PLACEMENT_3D('',#174,#149,#150);
#124=AXIS2_PLACEMENT_3D('',#176,#152,#153);
#125=DIRECTION('axis',(0.,0.,1.));
#126=DIRECTION('refdir',(1.,0.,0.));
#127=DIRECTION('center_axis',(1.,0.,0.));
#128=DIRECTION('ref_axis',(0.,0.,-1.));
#129=DIRECTION('center_axis',(1.,0.,0.));
#130=DIRECTION('ref_axis',(0.,0.,-1.));
#131=DIRECTION('center_axis',(1.,0.,0.));
#132=DIRECTION('ref_axis',(0.,0.,-1.));
#133=DIRECTION('center_axis',(1.,0.,0.));
#134=DIRECTION('ref_axis',(0.,1.,0.));
#135=DIRECTION('',(-1.,0.,0.));
#136=DIRECTION('center_axis',(1.,0.,0.));
#137=DIRECTION('ref_axis',(0.,0.,-1.));
#138=DIRECTION('center_axis',(-1.,0.,0.));
#139=DIRECTION('ref_axis',(0.,0.,1.));
#140=DIRECTION('center_axis',(1.,0.,0.));
#141=DIRECTION('ref_axis',(0.,0.,-1.));
#142=DIRECTION('center_axis',(1.,0.,0.));
#143=DIRECTION('ref_axis',(0.,1.,0.));
#144=DIRECTION('center_axis',(1.,0.,0.));
#145=DIRECTION('ref_axis',(0.,0.,-1.));
#146=DIRECTION('',(-0.866025403784439,0.499999999999999,6.12323399573676E-17));
#147=DIRECTION('center_axis',(1.,0.,0.));
#148=DIRECTION('ref_axis',(0.,1.,0.));
#149=DIRECTION('center_axis',(1.,0.,0.));
#150=DIRECTION('ref_axis',(0.,0.,-1.));
#151=DIRECTION('',(-1.,0.,0.));
#152=DIRECTION('center_axis',(-1.,0.,0.));
#153=DIRECTION('ref_axis',(0.,1.,0.));
#154=DIRECTION('',(-0.866025403784438,-0.5,-6.12323399573677E-17));
#155=CARTESIAN_POINT('',(0.,0.,0.));
#156=CARTESIAN_POINT('Origin',(39.5,26.8,0.));
#157=CARTESIAN_POINT('',(39.5,-29.62,-3.62740381907446E-15));
#158=CARTESIAN_POINT('Origin',(39.5,0.,0.));
#159=CARTESIAN_POINT('',(39.5,-26.8,-3.28205342171491E-15));
#160=CARTESIAN_POINT('Origin',(39.5,0.,0.));
#161=CARTESIAN_POINT('Origin',(0.,0.,0.));
#162=CARTESIAN_POINT('',(-39.5,-26.8,-3.28205342171491E-15));
#163=CARTESIAN_POINT('',(0.,-26.8,-3.28205342171491E-15));
#164=CARTESIAN_POINT('Origin',(-39.5,0.,0.));
#165=CARTESIAN_POINT('Origin',(-39.5,29.62,0.));
#166=CARTESIAN_POINT('',(-39.5,-29.62,-3.62740381907446E-15));
#167=CARTESIAN_POINT('Origin',(-39.5,0.,0.));
#168=CARTESIAN_POINT('Origin',(-37.8718722408853,0.,0.));
#169=CARTESIAN_POINT('',(-36.2437444817705,-31.5,-3.85763741731416E-15));
#170=CARTESIAN_POINT('Origin',(-36.2437444817705,0.,0.));
#171=CARTESIAN_POINT('',(-37.8718722408853,-30.56,-3.74252061819431E-15));
#172=CARTESIAN_POINT('Origin',(0.,0.,0.));
#173=CARTESIAN_POINT('',(36.2437444817705,-31.5,-3.85763741731416E-15));
#174=CARTESIAN_POINT('Origin',(36.2437444817705,0.,0.));
#175=CARTESIAN_POINT('',(0.,-31.5,-3.85763741731416E-15));
#176=CARTESIAN_POINT('Origin',(37.8718722408853,0.,0.));
#177=CARTESIAN_POINT('',(37.8718722408853,-30.56,-3.74252061819431E-15));
#178=UNCERTAINTY_MEASURE_WITH_UNIT(LENGTH_MEASURE(0.01),#182,
'DISTANCE_ACCURACY_VALUE',
'Maximum model space distance between geometric entities at asserted c
onnectivities');
#179=UNCERTAINTY_MEASURE_WITH_UNIT(LENGTH_MEASURE(0.01),#182,
'DISTANCE_ACCURACY_VALUE',
'Maximum model space distance between geometric entities at asserted c
onnectivities');
#180=(
GEOMETRIC_REPRESENTATION_CONTEXT(3)
GLOBAL_UNCERTAINTY_ASSIGNED_CONTEXT((#178))
GLOBAL_UNIT_ASSIGNED_CONTEXT((#182,#184,#185))
REPRESENTATION_CONTEXT('','3D')
);
#181=(
GEOMETRIC_REPRESENTATION_CONTEXT(3)
GLOBAL_UNCERTAINTY_ASSIGNED_CONTEXT((#179))
GLOBAL_UNIT_ASSIGNED_CONTEXT((#182,#184,#185))
REPRESENTATION_CONTEXT('','3D')
);
#182=(
LENGTH_UNIT()
NAMED_UNIT(*)
SI_UNIT(.MILLI.,.METRE.)
);
#183=(
LENGTH_UNIT()
NAMED_UNIT(*)
SI_UNIT(.CENTI.,.METRE.)
);
#184=(
NAMED_UNIT(*)
PLANE_ANGLE_UNIT()
SI_UNIT($,.RADIAN.)
);
#185=(
NAMED_UNIT(*)
SI_UNIT($,.STERADIAN.)
SOLID_ANGLE_UNIT()
);
#186=SHAPE_DEFINITION_REPRESENTATION(#187,#188);
#187=PRODUCT_DEFINITION_SHAPE('',$,#190);
#188=SHAPE_REPRESENTATION('',(#112),#180);
#189=PRODUCT_DEFINITION_CONTEXT('part definition',#194,'design');
#190=PRODUCT_DEFINITION('NDV063','NDV063',#191,#189);
#191=PRODUCT_DEFINITION_FORMATION('0',$,#196);
#192=PRODUCT_RELATED_PRODUCT_CATEGORY('NDV063','NDV063',(#196));
#193=APPLICATION_PROTOCOL_DEFINITION('international standard',
'automotive_design',2009,#194);
#194=APPLICATION_CONTEXT(
'Core Data for Automotive Mechanical Design Process');
#195=PRODUCT_CONTEXT('part definition',#194,'mechanical');
#196=PRODUCT('NDV063','NDV063','PVC Male Coupling, \X\D863, PN16',(#195));
#197=PRESENTATION_STYLE_ASSIGNMENT((#198));
#198=SURFACE_STYLE_USAGE(.BOTH.,#201);
#199=SURFACE_STYLE_RENDERING_WITH_PROPERTIES($,#205,(#200));
#200=SURFACE_STYLE_TRANSPARENT(0.);
#201=SURFACE_SIDE_STYLE('',(#202,#199));
#202=SURFACE_STYLE_FILL_AREA(#203);
#203=FILL_AREA_STYLE('',(#204));
#204=FILL_AREA_STYLE_COLOUR('',#205);
#205=COLOUR_RGB('',0.250980392156863,0.290196078431373,0.329411764705882);
ENDSEC;
END-ISO-10303-21;
