ISO-10303-21;
HEADER;
/* Generated by software containing ST-Developer
 * from STEP Tools, Inc. (www.steptools.com) 
 */

FILE_DESCRIPTION(
/* description */ (
'PE100 Stub Flange with short spigot, Ø315, SDR11 PN16'),
/* implementation_level */ '2;1');

FILE_NAME(
/* name */ 
'QDE11-RC-315',
/* time_stamp */ '2022-04-05T16:12:05+02:00',
/* author */ ('COAB Solutions'),
/* organization */ ('GPA Flowsystem'),
/* preprocessor_version */ 'ST-DEVELOPER v18.1',
/* originating_system */ 'www.coabsoltions.com',
/* authorisation */ '');

FILE_SCHEMA (('AUTOMOTIVE_DESIGN { 1 0 10303 214 3 1 1 }'));
ENDSEC;

DATA;
#10=MECHANICAL_DESIGN_GEOMETRIC_PRESENTATION_REPRESENTATION('',(#13),#201);
#11=SHAPE_REPRESENTATION_RELATIONSHIP('SRR','None',#208,#12);
#12=ADVANCED_BREP_SHAPE_REPRESENTATION('',(#14),#200);
#13=STYLED_ITEM('',(#217),#14);
#14=MANIFOLD_SOLID_BREP('Solid2',#104);
#15=CONICAL_SURFACE('',#131,162.5,0.27094685033842);
#16=FACE_BOUND('',#31,.T.);
#17=FACE_BOUND('',#35,.T.);
#18=FACE_BOUND('',#38,.T.);
#19=PLANE('',#127);
#20=PLANE('',#133);
#21=PLANE('',#137);
#22=FACE_OUTER_BOUND('',#29,.T.);
#23=FACE_OUTER_BOUND('',#30,.T.);
#24=FACE_OUTER_BOUND('',#32,.T.);
#25=FACE_OUTER_BOUND('',#33,.T.);
#26=FACE_OUTER_BOUND('',#34,.T.);
#27=FACE_OUTER_BOUND('',#36,.T.);
#28=FACE_OUTER_BOUND('',#37,.T.);
#29=EDGE_LOOP('',(#72,#73,#74,#75));
#30=EDGE_LOOP('',(#76));
#31=EDGE_LOOP('',(#77));
#32=EDGE_LOOP('',(#78,#79,#80,#81));
#33=EDGE_LOOP('',(#82,#83,#84,#85));
#34=EDGE_LOOP('',(#86));
#35=EDGE_LOOP('',(#87));
#36=EDGE_LOOP('',(#88,#89,#90,#91));
#37=EDGE_LOOP('',(#92));
#38=EDGE_LOOP('',(#93));
#39=LINE('',#177,#43);
#40=LINE('',#185,#44);
#41=LINE('',#189,#45);
#42=LINE('',#196,#46);
#43=VECTOR('',#144,128.9);
#44=VECTOR('',#155,157.5);
#45=VECTOR('',#160,162.5);
#46=VECTOR('',#169,185.);
#47=CIRCLE('',#125,128.9);
#48=CIRCLE('',#126,128.9);
#49=CIRCLE('',#128,157.5);
#50=CIRCLE('',#130,157.5);
#51=CIRCLE('',#132,167.5);
#52=CIRCLE('',#134,185.);
#53=CIRCLE('',#136,185.);
#54=VERTEX_POINT('',#174);
#55=VERTEX_POINT('',#176);
#56=VERTEX_POINT('',#180);
#57=VERTEX_POINT('',#183);
#58=VERTEX_POINT('',#187);
#59=VERTEX_POINT('',#191);
#60=VERTEX_POINT('',#194);
#61=EDGE_CURVE('',#54,#54,#47,.T.);
#62=EDGE_CURVE('',#54,#55,#39,.T.);
#63=EDGE_CURVE('',#55,#55,#48,.T.);
#64=EDGE_CURVE('',#56,#56,#49,.T.);
#65=EDGE_CURVE('',#57,#57,#50,.T.);
#66=EDGE_CURVE('',#57,#56,#40,.T.);
#67=EDGE_CURVE('',#58,#58,#51,.T.);
#68=EDGE_CURVE('',#58,#57,#41,.T.);
#69=EDGE_CURVE('',#59,#59,#52,.T.);
#70=EDGE_CURVE('',#60,#60,#53,.T.);
#71=EDGE_CURVE('',#60,#59,#42,.T.);
#72=ORIENTED_EDGE('',*,*,#61,.T.);
#73=ORIENTED_EDGE('',*,*,#62,.T.);
#74=ORIENTED_EDGE('',*,*,#63,.F.);
#75=ORIENTED_EDGE('',*,*,#62,.F.);
#76=ORIENTED_EDGE('',*,*,#64,.F.);
#77=ORIENTED_EDGE('',*,*,#63,.T.);
#78=ORIENTED_EDGE('',*,*,#65,.F.);
#79=ORIENTED_EDGE('',*,*,#66,.T.);
#80=ORIENTED_EDGE('',*,*,#64,.T.);
#81=ORIENTED_EDGE('',*,*,#66,.F.);
#82=ORIENTED_EDGE('',*,*,#67,.F.);
#83=ORIENTED_EDGE('',*,*,#68,.T.);
#84=ORIENTED_EDGE('',*,*,#65,.T.);
#85=ORIENTED_EDGE('',*,*,#68,.F.);
#86=ORIENTED_EDGE('',*,*,#69,.F.);
#87=ORIENTED_EDGE('',*,*,#67,.T.);
#88=ORIENTED_EDGE('',*,*,#70,.F.);
#89=ORIENTED_EDGE('',*,*,#71,.T.);
#90=ORIENTED_EDGE('',*,*,#69,.T.);
#91=ORIENTED_EDGE('',*,*,#71,.F.);
#92=ORIENTED_EDGE('',*,*,#70,.T.);
#93=ORIENTED_EDGE('',*,*,#61,.F.);
#94=CYLINDRICAL_SURFACE('',#124,128.9);
#95=CYLINDRICAL_SURFACE('',#129,157.5);
#96=CYLINDRICAL_SURFACE('',#135,185.);
#97=ADVANCED_FACE('',(#22),#94,.F.);
#98=ADVANCED_FACE('',(#23,#16),#19,.T.);
#99=ADVANCED_FACE('',(#24),#95,.T.);
#100=ADVANCED_FACE('',(#25),#15,.T.);
#101=ADVANCED_FACE('',(#26,#17),#20,.T.);
#102=ADVANCED_FACE('',(#27),#96,.T.);
#103=ADVANCED_FACE('',(#28,#18),#21,.T.);
#104=CLOSED_SHELL('',(#97,#98,#99,#100,#101,#102,#103));
#105=DERIVED_UNIT_ELEMENT(#107,1.);
#106=DERIVED_UNIT_ELEMENT(#203,-3.);
#107=(
MASS_UNIT()
NAMED_UNIT(*)
SI_UNIT($,.GRAM.)
);
#108=DERIVED_UNIT((#105,#106));
#109=MEASURE_REPRESENTATION_ITEM('density measure',
POSITIVE_RATIO_MEASURE(1.),#108);
#110=PROPERTY_DEFINITION_REPRESENTATION(#115,#112);
#111=PROPERTY_DEFINITION_REPRESENTATION(#116,#113);
#112=REPRESENTATION('material name',(#114),#200);
#113=REPRESENTATION('density',(#109),#200);
#114=DESCRIPTIVE_REPRESENTATION_ITEM('PE','PE');
#115=PROPERTY_DEFINITION('material property','material name',#210);
#116=PROPERTY_DEFINITION('material property','density of part',#210);
#117=DATE_TIME_ROLE('creation_date');
#118=APPLIED_DATE_AND_TIME_ASSIGNMENT(#119,#117,(#210));
#119=DATE_AND_TIME(#120,#121);
#120=CALENDAR_DATE(2021,19,10);
#121=LOCAL_TIME(0,0,0.,#122);
#122=COORDINATED_UNIVERSAL_TIME_OFFSET(0,0,.BEHIND.);
#123=AXIS2_PLACEMENT_3D('placement',#172,#138,#139);
#124=AXIS2_PLACEMENT_3D('',#173,#140,#141);
#125=AXIS2_PLACEMENT_3D('',#175,#142,#143);
#126=AXIS2_PLACEMENT_3D('',#178,#145,#146);
#127=AXIS2_PLACEMENT_3D('',#179,#147,#148);
#128=AXIS2_PLACEMENT_3D('',#181,#149,#150);
#129=AXIS2_PLACEMENT_3D('',#182,#151,#152);
#130=AXIS2_PLACEMENT_3D('',#184,#153,#154);
#131=AXIS2_PLACEMENT_3D('',#186,#156,#157);
#132=AXIS2_PLACEMENT_3D('',#188,#158,#159);
#133=AXIS2_PLACEMENT_3D('',#190,#161,#162);
#134=AXIS2_PLACEMENT_3D('',#192,#163,#164);
#135=AXIS2_PLACEMENT_3D('',#193,#165,#166);
#136=AXIS2_PLACEMENT_3D('',#195,#167,#168);
#137=AXIS2_PLACEMENT_3D('',#197,#170,#171);
#138=DIRECTION('axis',(0.,0.,1.));
#139=DIRECTION('refdir',(1.,0.,0.));
#140=DIRECTION('center_axis',(1.,0.,0.));
#141=DIRECTION('ref_axis',(0.,1.,0.));
#142=DIRECTION('center_axis',(1.,0.,0.));
#143=DIRECTION('ref_axis',(0.,0.,-1.));
#144=DIRECTION('',(-1.,0.,0.));
#145=DIRECTION('center_axis',(1.,0.,0.));
#146=DIRECTION('ref_axis',(0.,0.,-1.));
#147=DIRECTION('center_axis',(-1.,0.,0.));
#148=DIRECTION('ref_axis',(0.,0.,1.));
#149=DIRECTION('center_axis',(1.,0.,0.));
#150=DIRECTION('ref_axis',(0.,0.,-1.));
#151=DIRECTION('center_axis',(1.,0.,0.));
#152=DIRECTION('ref_axis',(0.,1.,0.));
#153=DIRECTION('center_axis',(1.,0.,0.));
#154=DIRECTION('ref_axis',(0.,0.,-1.));
#155=DIRECTION('',(-1.,0.,0.));
#156=DIRECTION('center_axis',(1.,0.,0.));
#157=DIRECTION('ref_axis',(0.,1.,0.));
#158=DIRECTION('center_axis',(1.,0.,0.));
#159=DIRECTION('ref_axis',(0.,0.,-1.));
#160=DIRECTION('',(-0.963517909629941,0.267643863786094,3.27769201097071E-17));
#161=DIRECTION('center_axis',(-1.,0.,0.));
#162=DIRECTION('ref_axis',(0.,0.,1.));
#163=DIRECTION('center_axis',(1.,0.,0.));
#164=DIRECTION('ref_axis',(0.,0.,-1.));
#165=DIRECTION('center_axis',(1.,0.,0.));
#166=DIRECTION('ref_axis',(0.,1.,0.));
#167=DIRECTION('center_axis',(1.,0.,0.));
#168=DIRECTION('ref_axis',(0.,0.,-1.));
#169=DIRECTION('',(-1.,0.,0.));
#170=DIRECTION('center_axis',(1.,0.,0.));
#171=DIRECTION('ref_axis',(0.,0.,-1.));
#172=CARTESIAN_POINT('',(0.,0.,0.));
#173=CARTESIAN_POINT('Origin',(68.,0.,0.));
#174=CARTESIAN_POINT('',(136.,-128.9,-1.57856972410094E-14));
#175=CARTESIAN_POINT('Origin',(136.,0.,0.));
#176=CARTESIAN_POINT('',(-8.88178419700125E-15,-128.9,-1.57856972410094E-14));
#177=CARTESIAN_POINT('',(68.,-128.9,-1.57856972410094E-14));
#178=CARTESIAN_POINT('Origin',(0.,0.,0.));
#179=CARTESIAN_POINT('Origin',(-1.81633646472476E-14,157.5,0.));
#180=CARTESIAN_POINT('',(-1.77635683940025E-14,-157.5,-1.92881870865708E-14));
#181=CARTESIAN_POINT('Origin',(-1.77635683940025E-14,0.,0.));
#182=CARTESIAN_POINT('Origin',(32.5,0.,0.));
#183=CARTESIAN_POINT('',(65.,-157.5,-1.92881870865708E-14));
#184=CARTESIAN_POINT('Origin',(65.,0.,0.));
#185=CARTESIAN_POINT('',(32.5,-157.5,-1.92881870865708E-14));
#186=CARTESIAN_POINT('Origin',(83.,0.,0.));
#187=CARTESIAN_POINT('',(101.,-167.5,-2.05128338857182E-14));
#188=CARTESIAN_POINT('Origin',(101.,0.,0.));
#189=CARTESIAN_POINT('',(83.,-162.5,-1.99005104861445E-14));
#190=CARTESIAN_POINT('Origin',(101.,185.,0.));
#191=CARTESIAN_POINT('',(101.,-185.,-2.2655965784226E-14));
#192=CARTESIAN_POINT('Origin',(101.,0.,0.));
#193=CARTESIAN_POINT('Origin',(118.5,0.,0.));
#194=CARTESIAN_POINT('',(136.,-185.,-2.2655965784226E-14));
#195=CARTESIAN_POINT('Origin',(136.,0.,0.));
#196=CARTESIAN_POINT('',(118.5,-185.,-2.2655965784226E-14));
#197=CARTESIAN_POINT('Origin',(136.,128.9,0.));
#198=UNCERTAINTY_MEASURE_WITH_UNIT(LENGTH_MEASURE(0.01),#202,
'DISTANCE_ACCURACY_VALUE',
'Maximum model space distance between geometric entities at asserted c
onnectivities');
#199=UNCERTAINTY_MEASURE_WITH_UNIT(LENGTH_MEASURE(0.01),#202,
'DISTANCE_ACCURACY_VALUE',
'Maximum model space distance between geometric entities at asserted c
onnectivities');
#200=(
GEOMETRIC_REPRESENTATION_CONTEXT(3)
GLOBAL_UNCERTAINTY_ASSIGNED_CONTEXT((#198))
GLOBAL_UNIT_ASSIGNED_CONTEXT((#202,#204,#205))
REPRESENTATION_CONTEXT('','3D')
);
#201=(
GEOMETRIC_REPRESENTATION_CONTEXT(3)
GLOBAL_UNCERTAINTY_ASSIGNED_CONTEXT((#199))
GLOBAL_UNIT_ASSIGNED_CONTEXT((#202,#204,#205))
REPRESENTATION_CONTEXT('','3D')
);
#202=(
LENGTH_UNIT()
NAMED_UNIT(*)
SI_UNIT(.MILLI.,.METRE.)
);
#203=(
LENGTH_UNIT()
NAMED_UNIT(*)
SI_UNIT(.CENTI.,.METRE.)
);
#204=(
NAMED_UNIT(*)
PLANE_ANGLE_UNIT()
SI_UNIT($,.RADIAN.)
);
#205=(
NAMED_UNIT(*)
SI_UNIT($,.STERADIAN.)
SOLID_ANGLE_UNIT()
);
#206=SHAPE_DEFINITION_REPRESENTATION(#207,#208);
#207=PRODUCT_DEFINITION_SHAPE('',$,#210);
#208=SHAPE_REPRESENTATION('',(#123),#200);
#209=PRODUCT_DEFINITION_CONTEXT('part definition',#214,'design');
#210=PRODUCT_DEFINITION('QDE11-RC-315','QDE11-RC-315',#211,#209);
#211=PRODUCT_DEFINITION_FORMATION('0',$,#216);
#212=PRODUCT_RELATED_PRODUCT_CATEGORY('QDE11-RC-315','QDE11-RC-315',(#216));
#213=APPLICATION_PROTOCOL_DEFINITION('international standard',
'automotive_design',2009,#214);
#214=APPLICATION_CONTEXT(
'Core Data for Automotive Mechanical Design Process');
#215=PRODUCT_CONTEXT('part definition',#214,'mechanical');
#216=PRODUCT('QDE11-RC-315','QDE11-RC-315',
'PE100 Stub Flange with short spigot, \X\D8315, SDR11 PN16',(#215));
#217=PRESENTATION_STYLE_ASSIGNMENT((#218));
#218=SURFACE_STYLE_USAGE(.BOTH.,#221);
#219=SURFACE_STYLE_RENDERING_WITH_PROPERTIES($,#225,(#220));
#220=SURFACE_STYLE_TRANSPARENT(0.);
#221=SURFACE_SIDE_STYLE('',(#222,#219));
#222=SURFACE_STYLE_FILL_AREA(#223);
#223=FILL_AREA_STYLE('',(#224));
#224=FILL_AREA_STYLE_COLOUR('',#225);
#225=COLOUR_RGB('',0.109803921568627,0.109803921568627,0.129411764705882);
ENDSEC;
END-ISO-10303-21;
