ISO-10303-21;
HEADER;
/* Generated by software containing ST-Developer
 * from STEP Tools, Inc. (www.steptools.com) 
 */

FILE_DESCRIPTION(
/* description */ (
'PE100 Concentric Reduction Short, Ø110-090, SDR11 PN16'),
/* implementation_level */ '2;1');

FILE_NAME(
/* name */ 
'RDE11-RC-110-090',
/* time_stamp */ '2022-04-05T16:15:28+02:00',
/* author */ ('COAB Solutions'),
/* organization */ ('GPA Flowsystem'),
/* preprocessor_version */ 'ST-DEVELOPER v18.1',
/* originating_system */ 'www.coabsolutions.com',
/* authorisation */ '');

FILE_SCHEMA (('AUTOMOTIVE_DESIGN { 1 0 10303 214 3 1 1 }'));
ENDSEC;

DATA;
#10=MECHANICAL_DESIGN_GEOMETRIC_PRESENTATION_REPRESENTATION('',(#13),#231);
#11=SHAPE_REPRESENTATION_RELATIONSHIP('SRR','None',#238,#12);
#12=ADVANCED_BREP_SHAPE_REPRESENTATION('',(#14),#230);
#13=STYLED_ITEM('',(#247),#14);
#14=MANIFOLD_SOLID_BREP('Solid2',#121);
#15=CONICAL_SURFACE('',#148,50.,0.278299659005111);
#16=CONICAL_SURFACE('',#156,40.9,0.23013494910523);
#17=FACE_BOUND('',#31,.T.);
#18=FACE_BOUND('',#36,.T.);
#19=PLANE('',#144);
#20=PLANE('',#152);
#21=FACE_OUTER_BOUND('',#29,.T.);
#22=FACE_OUTER_BOUND('',#30,.T.);
#23=FACE_OUTER_BOUND('',#32,.T.);
#24=FACE_OUTER_BOUND('',#33,.T.);
#25=FACE_OUTER_BOUND('',#34,.T.);
#26=FACE_OUTER_BOUND('',#35,.T.);
#27=FACE_OUTER_BOUND('',#37,.T.);
#28=FACE_OUTER_BOUND('',#38,.T.);
#29=EDGE_LOOP('',(#81,#82,#83,#84));
#30=EDGE_LOOP('',(#85));
#31=EDGE_LOOP('',(#86));
#32=EDGE_LOOP('',(#87,#88,#89,#90));
#33=EDGE_LOOP('',(#91,#92,#93,#94));
#34=EDGE_LOOP('',(#95,#96,#97,#98));
#35=EDGE_LOOP('',(#99));
#36=EDGE_LOOP('',(#100));
#37=EDGE_LOOP('',(#101,#102,#103,#104));
#38=EDGE_LOOP('',(#105,#106,#107,#108));
#39=LINE('',#202,#45);
#40=LINE('',#210,#46);
#41=LINE('',#214,#47);
#42=LINE('',#218,#48);
#43=LINE('',#224,#49);
#44=LINE('',#227,#50);
#45=VECTOR('',#163,45.);
#46=VECTOR('',#174,55.);
#47=VECTOR('',#179,50.);
#48=VECTOR('',#184,45.);
#49=VECTOR('',#191,36.8);
#50=VECTOR('',#196,40.9);
#51=CIRCLE('',#142,45.);
#52=CIRCLE('',#143,45.);
#53=CIRCLE('',#145,55.);
#54=CIRCLE('',#147,55.);
#55=CIRCLE('',#149,45.);
#56=CIRCLE('',#151,45.);
#57=CIRCLE('',#153,36.8);
#58=CIRCLE('',#155,36.8);
#59=VERTEX_POINT('',#199);
#60=VERTEX_POINT('',#201);
#61=VERTEX_POINT('',#205);
#62=VERTEX_POINT('',#208);
#63=VERTEX_POINT('',#212);
#64=VERTEX_POINT('',#216);
#65=VERTEX_POINT('',#220);
#66=VERTEX_POINT('',#223);
#67=EDGE_CURVE('',#59,#59,#51,.T.);
#68=EDGE_CURVE('',#59,#60,#39,.T.);
#69=EDGE_CURVE('',#60,#60,#52,.T.);
#70=EDGE_CURVE('',#61,#61,#53,.T.);
#71=EDGE_CURVE('',#62,#62,#54,.T.);
#72=EDGE_CURVE('',#62,#61,#40,.T.);
#73=EDGE_CURVE('',#63,#63,#55,.T.);
#74=EDGE_CURVE('',#63,#62,#41,.T.);
#75=EDGE_CURVE('',#64,#64,#56,.T.);
#76=EDGE_CURVE('',#64,#63,#42,.T.);
#77=EDGE_CURVE('',#65,#65,#57,.T.);
#78=EDGE_CURVE('',#65,#66,#43,.T.);
#79=EDGE_CURVE('',#66,#66,#58,.T.);
#80=EDGE_CURVE('',#66,#59,#44,.T.);
#81=ORIENTED_EDGE('',*,*,#67,.T.);
#82=ORIENTED_EDGE('',*,*,#68,.T.);
#83=ORIENTED_EDGE('',*,*,#69,.F.);
#84=ORIENTED_EDGE('',*,*,#68,.F.);
#85=ORIENTED_EDGE('',*,*,#70,.F.);
#86=ORIENTED_EDGE('',*,*,#69,.T.);
#87=ORIENTED_EDGE('',*,*,#71,.F.);
#88=ORIENTED_EDGE('',*,*,#72,.T.);
#89=ORIENTED_EDGE('',*,*,#70,.T.);
#90=ORIENTED_EDGE('',*,*,#72,.F.);
#91=ORIENTED_EDGE('',*,*,#73,.F.);
#92=ORIENTED_EDGE('',*,*,#74,.T.);
#93=ORIENTED_EDGE('',*,*,#71,.T.);
#94=ORIENTED_EDGE('',*,*,#74,.F.);
#95=ORIENTED_EDGE('',*,*,#75,.F.);
#96=ORIENTED_EDGE('',*,*,#76,.T.);
#97=ORIENTED_EDGE('',*,*,#73,.T.);
#98=ORIENTED_EDGE('',*,*,#76,.F.);
#99=ORIENTED_EDGE('',*,*,#75,.T.);
#100=ORIENTED_EDGE('',*,*,#77,.F.);
#101=ORIENTED_EDGE('',*,*,#77,.T.);
#102=ORIENTED_EDGE('',*,*,#78,.T.);
#103=ORIENTED_EDGE('',*,*,#79,.F.);
#104=ORIENTED_EDGE('',*,*,#78,.F.);
#105=ORIENTED_EDGE('',*,*,#79,.T.);
#106=ORIENTED_EDGE('',*,*,#80,.T.);
#107=ORIENTED_EDGE('',*,*,#67,.F.);
#108=ORIENTED_EDGE('',*,*,#80,.F.);
#109=CYLINDRICAL_SURFACE('',#141,45.);
#110=CYLINDRICAL_SURFACE('',#146,55.);
#111=CYLINDRICAL_SURFACE('',#150,45.);
#112=CYLINDRICAL_SURFACE('',#154,36.8);
#113=ADVANCED_FACE('',(#21),#109,.F.);
#114=ADVANCED_FACE('',(#22,#17),#19,.T.);
#115=ADVANCED_FACE('',(#23),#110,.T.);
#116=ADVANCED_FACE('',(#24),#15,.T.);
#117=ADVANCED_FACE('',(#25),#111,.T.);
#118=ADVANCED_FACE('',(#26,#18),#20,.T.);
#119=ADVANCED_FACE('',(#27),#112,.F.);
#120=ADVANCED_FACE('',(#28),#16,.F.);
#121=CLOSED_SHELL('',(#113,#114,#115,#116,#117,#118,#119,#120));
#122=DERIVED_UNIT_ELEMENT(#124,1.);
#123=DERIVED_UNIT_ELEMENT(#233,-3.);
#124=(
MASS_UNIT()
NAMED_UNIT(*)
SI_UNIT($,.GRAM.)
);
#125=DERIVED_UNIT((#122,#123));
#126=MEASURE_REPRESENTATION_ITEM('density measure',
POSITIVE_RATIO_MEASURE(1.),#125);
#127=PROPERTY_DEFINITION_REPRESENTATION(#132,#129);
#128=PROPERTY_DEFINITION_REPRESENTATION(#133,#130);
#129=REPRESENTATION('material name',(#131),#230);
#130=REPRESENTATION('density',(#126),#230);
#131=DESCRIPTIVE_REPRESENTATION_ITEM('PE','PE');
#132=PROPERTY_DEFINITION('material property','material name',#240);
#133=PROPERTY_DEFINITION('material property','density of part',#240);
#134=DATE_TIME_ROLE('creation_date');
#135=APPLIED_DATE_AND_TIME_ASSIGNMENT(#136,#134,(#240));
#136=DATE_AND_TIME(#137,#138);
#137=CALENDAR_DATE(2021,19,10);
#138=LOCAL_TIME(0,0,0.,#139);
#139=COORDINATED_UNIVERSAL_TIME_OFFSET(0,0,.BEHIND.);
#140=AXIS2_PLACEMENT_3D('placement',#197,#157,#158);
#141=AXIS2_PLACEMENT_3D('',#198,#159,#160);
#142=AXIS2_PLACEMENT_3D('',#200,#161,#162);
#143=AXIS2_PLACEMENT_3D('',#203,#164,#165);
#144=AXIS2_PLACEMENT_3D('',#204,#166,#167);
#145=AXIS2_PLACEMENT_3D('',#206,#168,#169);
#146=AXIS2_PLACEMENT_3D('',#207,#170,#171);
#147=AXIS2_PLACEMENT_3D('',#209,#172,#173);
#148=AXIS2_PLACEMENT_3D('',#211,#175,#176);
#149=AXIS2_PLACEMENT_3D('',#213,#177,#178);
#150=AXIS2_PLACEMENT_3D('',#215,#180,#181);
#151=AXIS2_PLACEMENT_3D('',#217,#182,#183);
#152=AXIS2_PLACEMENT_3D('',#219,#185,#186);
#153=AXIS2_PLACEMENT_3D('',#221,#187,#188);
#154=AXIS2_PLACEMENT_3D('',#222,#189,#190);
#155=AXIS2_PLACEMENT_3D('',#225,#192,#193);
#156=AXIS2_PLACEMENT_3D('',#226,#194,#195);
#157=DIRECTION('axis',(0.,0.,1.));
#158=DIRECTION('refdir',(1.,0.,0.));
#159=DIRECTION('center_axis',(1.,0.,0.));
#160=DIRECTION('ref_axis',(0.,1.,0.));
#161=DIRECTION('center_axis',(1.,0.,0.));
#162=DIRECTION('ref_axis',(0.,0.,-1.));
#163=DIRECTION('',(-1.,0.,0.));
#164=DIRECTION('center_axis',(1.,0.,0.));
#165=DIRECTION('ref_axis',(0.,0.,-1.));
#166=DIRECTION('center_axis',(-1.,0.,0.));
#167=DIRECTION('ref_axis',(0.,0.,1.));
#168=DIRECTION('center_axis',(1.,0.,0.));
#169=DIRECTION('ref_axis',(0.,0.,-1.));
#170=DIRECTION('center_axis',(1.,0.,0.));
#171=DIRECTION('ref_axis',(0.,1.,0.));
#172=DIRECTION('center_axis',(1.,0.,0.));
#173=DIRECTION('ref_axis',(0.,0.,-1.));
#174=DIRECTION('',(-1.,0.,0.));
#175=DIRECTION('center_axis',(-1.,0.,0.));
#176=DIRECTION('ref_axis',(0.,1.,0.));
#177=DIRECTION('center_axis',(1.,0.,0.));
#178=DIRECTION('ref_axis',(0.,0.,-1.));
#179=DIRECTION('',(-0.961523947640823,-0.274721127897378,-3.36436349937675E-17));
#180=DIRECTION('center_axis',(1.,0.,0.));
#181=DIRECTION('ref_axis',(0.,1.,0.));
#182=DIRECTION('center_axis',(1.,0.,0.));
#183=DIRECTION('ref_axis',(0.,0.,-1.));
#184=DIRECTION('',(-1.,0.,0.));
#185=DIRECTION('center_axis',(1.,0.,0.));
#186=DIRECTION('ref_axis',(0.,0.,-1.));
#187=DIRECTION('center_axis',(1.,0.,0.));
#188=DIRECTION('ref_axis',(0.,0.,-1.));
#189=DIRECTION('center_axis',(1.,0.,0.));
#190=DIRECTION('ref_axis',(0.,1.,0.));
#191=DIRECTION('',(-1.,0.,0.));
#192=DIRECTION('center_axis',(1.,0.,0.));
#193=DIRECTION('ref_axis',(0.,0.,-1.));
#194=DIRECTION('center_axis',(-1.,0.,0.));
#195=DIRECTION('ref_axis',(0.,1.,0.));
#196=DIRECTION('',(-0.973635620776808,-0.228108916867709,-2.7935285489901E-17));
#197=CARTESIAN_POINT('',(0.,0.,0.));
#198=CARTESIAN_POINT('Origin',(14.,0.,0.));
#199=CARTESIAN_POINT('',(28.,-45.,-5.51091059616309E-15));
#200=CARTESIAN_POINT('Origin',(28.,0.,0.));
#201=CARTESIAN_POINT('',(0.,-45.,-5.51091059616309E-15));
#202=CARTESIAN_POINT('',(14.,-45.,-5.51091059616309E-15));
#203=CARTESIAN_POINT('Origin',(0.,0.,0.));
#204=CARTESIAN_POINT('Origin',(0.,55.,0.));
#205=CARTESIAN_POINT('',(0.,-55.,-6.73555739531044E-15));
#206=CARTESIAN_POINT('Origin',(0.,0.,0.));
#207=CARTESIAN_POINT('Origin',(14.,0.,0.));
#208=CARTESIAN_POINT('',(28.,-55.,-6.73555739531044E-15));
#209=CARTESIAN_POINT('Origin',(28.,0.,0.));
#210=CARTESIAN_POINT('',(14.,-55.,-6.73555739531044E-15));
#211=CARTESIAN_POINT('Origin',(45.5,0.,0.));
#212=CARTESIAN_POINT('',(63.,-45.,-5.51091059616309E-15));
#213=CARTESIAN_POINT('Origin',(63.,0.,0.));
#214=CARTESIAN_POINT('',(45.5,-50.,-6.12323399573677E-15));
#215=CARTESIAN_POINT('Origin',(74.,0.,0.));
#216=CARTESIAN_POINT('',(85.,-45.,-5.51091059616309E-15));
#217=CARTESIAN_POINT('Origin',(85.,0.,0.));
#218=CARTESIAN_POINT('',(74.,-45.,-5.51091059616309E-15));
#219=CARTESIAN_POINT('Origin',(85.,36.8,0.));
#220=CARTESIAN_POINT('',(85.,-36.8,-4.50670022086226E-15));
#221=CARTESIAN_POINT('Origin',(85.,0.,0.));
#222=CARTESIAN_POINT('Origin',(74.,0.,0.));
#223=CARTESIAN_POINT('',(63.,-36.8,-4.50670022086226E-15));
#224=CARTESIAN_POINT('',(74.,-36.8,-4.50670022086226E-15));
#225=CARTESIAN_POINT('Origin',(63.,0.,0.));
#226=CARTESIAN_POINT('Origin',(45.5,0.,0.));
#227=CARTESIAN_POINT('',(45.5,-40.9,-5.00880540851267E-15));
#228=UNCERTAINTY_MEASURE_WITH_UNIT(LENGTH_MEASURE(0.01),#232,
'DISTANCE_ACCURACY_VALUE',
'Maximum model space distance between geometric entities at asserted c
onnectivities');
#229=UNCERTAINTY_MEASURE_WITH_UNIT(LENGTH_MEASURE(0.01),#232,
'DISTANCE_ACCURACY_VALUE',
'Maximum model space distance between geometric entities at asserted c
onnectivities');
#230=(
GEOMETRIC_REPRESENTATION_CONTEXT(3)
GLOBAL_UNCERTAINTY_ASSIGNED_CONTEXT((#228))
GLOBAL_UNIT_ASSIGNED_CONTEXT((#232,#234,#235))
REPRESENTATION_CONTEXT('','3D')
);
#231=(
GEOMETRIC_REPRESENTATION_CONTEXT(3)
GLOBAL_UNCERTAINTY_ASSIGNED_CONTEXT((#229))
GLOBAL_UNIT_ASSIGNED_CONTEXT((#232,#234,#235))
REPRESENTATION_CONTEXT('','3D')
);
#232=(
LENGTH_UNIT()
NAMED_UNIT(*)
SI_UNIT(.MILLI.,.METRE.)
);
#233=(
LENGTH_UNIT()
NAMED_UNIT(*)
SI_UNIT(.CENTI.,.METRE.)
);
#234=(
NAMED_UNIT(*)
PLANE_ANGLE_UNIT()
SI_UNIT($,.RADIAN.)
);
#235=(
NAMED_UNIT(*)
SI_UNIT($,.STERADIAN.)
SOLID_ANGLE_UNIT()
);
#236=SHAPE_DEFINITION_REPRESENTATION(#237,#238);
#237=PRODUCT_DEFINITION_SHAPE('',$,#240);
#238=SHAPE_REPRESENTATION('',(#140),#230);
#239=PRODUCT_DEFINITION_CONTEXT('part definition',#244,'design');
#240=PRODUCT_DEFINITION('RDE11-RC-110-090','RDE11-RC-110-090',#241,#239);
#241=PRODUCT_DEFINITION_FORMATION('0',$,#246);
#242=PRODUCT_RELATED_PRODUCT_CATEGORY('RDE11-RC-110-090',
'RDE11-RC-110-090',(#246));
#243=APPLICATION_PROTOCOL_DEFINITION('international standard',
'automotive_design',2009,#244);
#244=APPLICATION_CONTEXT(
'Core Data for Automotive Mechanical Design Process');
#245=PRODUCT_CONTEXT('part definition',#244,'mechanical');
#246=PRODUCT('RDE11-RC-110-090','RDE11-RC-110-090',
'PE100 Concentric Reduction Short, \X\D8110-090, SDR11 PN16',(#245));
#247=PRESENTATION_STYLE_ASSIGNMENT((#248));
#248=SURFACE_STYLE_USAGE(.BOTH.,#251);
#249=SURFACE_STYLE_RENDERING_WITH_PROPERTIES($,#255,(#250));
#250=SURFACE_STYLE_TRANSPARENT(0.);
#251=SURFACE_SIDE_STYLE('',(#252,#249));
#252=SURFACE_STYLE_FILL_AREA(#253);
#253=FILL_AREA_STYLE('',(#254));
#254=FILL_AREA_STYLE_COLOUR('',#255);
#255=COLOUR_RGB('',0.109803921568627,0.109803921568627,0.129411764705882);
ENDSEC;
END-ISO-10303-21;
