ISO-10303-21;
HEADER;
/* Generated by software containing ST-Developer
 * from STEP Tools, Inc. (www.steptools.com) 
 */

FILE_DESCRIPTION(
/* description */ ('PVC Bend 15°, Ø125, PN12,5'),
/* implementation_level */ '2;1');

FILE_NAME(
/* name */ 
'KLIIV125',
/* time_stamp */ '2022-05-11T16:00:48+02:00',
/* author */ ('COAB Solutions'),
/* organization */ ('GPA Flowsystem'),
/* preprocessor_version */ 'ST-DEVELOPER v18.1',
/* originating_system */ 'www.coabsolutions.com',
/* authorisation */ '');

FILE_SCHEMA (('AUTOMOTIVE_DESIGN { 1 0 10303 214 3 1 1 }'));
ENDSEC;

DATA;
#10=MECHANICAL_DESIGN_GEOMETRIC_PRESENTATION_REPRESENTATION('',(#13),#407);
#11=SHAPE_REPRESENTATION_RELATIONSHIP('SRR','None',#414,#12);
#12=ADVANCED_BREP_SHAPE_REPRESENTATION('',(#14),#406);
#13=STYLED_ITEM('',(#423),#14);
#14=MANIFOLD_SOLID_BREP('Solid2',#179);
#15=FACE_BOUND('',#47,.T.);
#16=FACE_BOUND('',#51,.T.);
#17=FACE_BOUND('',#54,.T.);
#18=FACE_BOUND('',#56,.T.);
#19=PLANE('',#210);
#20=PLANE('',#216);
#21=PLANE('',#221);
#22=PLANE('',#222);
#23=CYLINDRICAL_SURFACE('',#205,62.5);
#24=CYLINDRICAL_SURFACE('',#208,70.);
#25=CYLINDRICAL_SURFACE('',#211,62.5);
#26=CYLINDRICAL_SURFACE('',#214,70.);
#27=TOROIDAL_SURFACE('',#201,402.57496797443,62.5);
#28=TOROIDAL_SURFACE('',#217,402.57496797443,55.);
#29=FACE_OUTER_BOUND('',#41,.T.);
#30=FACE_OUTER_BOUND('',#42,.T.);
#31=FACE_OUTER_BOUND('',#43,.T.);
#32=FACE_OUTER_BOUND('',#44,.T.);
#33=FACE_OUTER_BOUND('',#45,.T.);
#34=FACE_OUTER_BOUND('',#46,.T.);
#35=FACE_OUTER_BOUND('',#48,.T.);
#36=FACE_OUTER_BOUND('',#49,.T.);
#37=FACE_OUTER_BOUND('',#50,.T.);
#38=FACE_OUTER_BOUND('',#52,.T.);
#39=FACE_OUTER_BOUND('',#53,.T.);
#40=FACE_OUTER_BOUND('',#55,.T.);
#41=EDGE_LOOP('',(#121,#122,#123,#124,#125));
#42=EDGE_LOOP('',(#126,#127,#128,#129,#130,#131));
#43=EDGE_LOOP('',(#132,#133,#134,#135,#136));
#44=EDGE_LOOP('',(#137,#138,#139,#140));
#45=EDGE_LOOP('',(#141,#142,#143,#144));
#46=EDGE_LOOP('',(#145));
#47=EDGE_LOOP('',(#146));
#48=EDGE_LOOP('',(#147,#148,#149,#150));
#49=EDGE_LOOP('',(#151,#152,#153,#154));
#50=EDGE_LOOP('',(#155));
#51=EDGE_LOOP('',(#156));
#52=EDGE_LOOP('',(#157,#158,#159,#160));
#53=EDGE_LOOP('',(#161));
#54=EDGE_LOOP('',(#162));
#55=EDGE_LOOP('',(#163));
#56=EDGE_LOOP('',(#164));
#57=B_SPLINE_CURVE_WITH_KNOTS('',3,(#286,#287,#288,#289,#290,#291,#292,
#293,#294,#295,#296,#297,#298,#299,#300,#301,#302,#303,#304,#305),
 .UNSPECIFIED.,.F.,.F.,(4,2,2,2,2,2,2,2,2,4),(-39.390629804282,-38.0081978298822,
-36.6262066906877,-34.1828668208098,-31.7388062617849,-29.2950350804082,
-26.8529635644979,-24.4132896834964,-21.9746158055388,-19.6978449221113),
 .UNSPECIFIED.);
#58=B_SPLINE_CURVE_WITH_KNOTS('',3,(#306,#307,#308,#309,#310,#311,#312,
#313,#314,#315,#316,#317,#318,#319,#320,#321,#322,#323,#324,#325),
 .UNSPECIFIED.,.F.,.F.,(4,2,2,2,2,2,2,2,2,4),(-19.6978449221113,-19.534108197567,
-17.0906311269407,-14.646038744246,-12.2026818018585,-9.7612437916178,-7.32106423528575,
-4.88121539396177,-2.44100673963631,0.),.UNSPECIFIED.);
#59=B_SPLINE_CURVE_WITH_KNOTS('',3,(#330,#331,#332,#333,#334,#335,#336,
#337,#338,#339,#340,#341,#342,#343,#344,#345,#346,#347,#348,#349),
 .UNSPECIFIED.,.F.,.F.,(4,2,2,2,2,2,2,2,2,4),(-19.6967042510874,-19.3724808729552,
-16.8906750724723,-14.4120344310246,-11.9311461793782,-9.52581646380398,
-7.16155440681369,-4.80537912611877,-2.42669601170811,0.),.UNSPECIFIED.);
#60=B_SPLINE_CURVE_WITH_KNOTS('',3,(#350,#351,#352,#353,#354,#355,#356,
#357,#358,#359,#360,#361,#362,#363,#364,#365,#366,#367,#368,#369),
 .UNSPECIFIED.,.F.,.F.,(4,2,2,2,2,2,2,2,2,4),(-39.3895887964635,-37.8883366623944,
-36.4205951529921,-33.9388932033542,-31.4573960069133,-28.9592258259855,
-26.5320314229883,-24.1824061168243,-21.8632494468982,-19.6967042510874),
 .UNSPECIFIED.);
#61=LINE('',#284,#67);
#62=LINE('',#372,#68);
#63=LINE('',#378,#69);
#64=LINE('',#382,#70);
#65=LINE('',#389,#71);
#66=LINE('',#393,#72);
#67=VECTOR('',#229,66.2192632016918);
#68=VECTOR('',#236,66.2192632016917);
#69=VECTOR('',#243,62.5);
#70=VECTOR('',#248,70.);
#71=VECTOR('',#257,62.5);
#72=VECTOR('',#262,70.);
#73=CIRCLE('',#200,70.);
#74=CIRCLE('',#202,340.07496797443);
#75=CIRCLE('',#204,70.);
#76=CIRCLE('',#206,62.5);
#77=CIRCLE('',#207,62.5);
#78=CIRCLE('',#209,70.);
#79=CIRCLE('',#212,62.5);
#80=CIRCLE('',#213,62.5);
#81=CIRCLE('',#215,70.);
#82=CIRCLE('',#218,55.);
#83=CIRCLE('',#219,347.57496797443);
#84=CIRCLE('',#220,55.);
#85=VERTEX_POINT('',#281);
#86=VERTEX_POINT('',#283);
#87=VERTEX_POINT('',#285);
#88=VERTEX_POINT('',#327);
#89=VERTEX_POINT('',#329);
#90=VERTEX_POINT('',#371);
#91=VERTEX_POINT('',#375);
#92=VERTEX_POINT('',#377);
#93=VERTEX_POINT('',#381);
#94=VERTEX_POINT('',#386);
#95=VERTEX_POINT('',#388);
#96=VERTEX_POINT('',#392);
#97=VERTEX_POINT('',#397);
#98=VERTEX_POINT('',#399);
#99=EDGE_CURVE('',#85,#85,#73,.T.);
#100=EDGE_CURVE('',#85,#86,#61,.T.);
#101=EDGE_CURVE('',#87,#86,#57,.T.);
#102=EDGE_CURVE('',#86,#87,#58,.T.);
#103=EDGE_CURVE('',#86,#88,#74,.T.);
#104=EDGE_CURVE('',#88,#89,#59,.T.);
#105=EDGE_CURVE('',#89,#88,#60,.T.);
#106=EDGE_CURVE('',#88,#90,#62,.T.);
#107=EDGE_CURVE('',#90,#90,#75,.T.);
#108=EDGE_CURVE('',#91,#91,#76,.T.);
#109=EDGE_CURVE('',#91,#92,#63,.T.);
#110=EDGE_CURVE('',#92,#92,#77,.T.);
#111=EDGE_CURVE('',#85,#93,#64,.T.);
#112=EDGE_CURVE('',#93,#93,#78,.T.);
#113=EDGE_CURVE('',#94,#94,#79,.T.);
#114=EDGE_CURVE('',#94,#95,#65,.T.);
#115=EDGE_CURVE('',#95,#95,#80,.T.);
#116=EDGE_CURVE('',#90,#96,#66,.T.);
#117=EDGE_CURVE('',#96,#96,#81,.T.);
#118=EDGE_CURVE('',#97,#97,#82,.T.);
#119=EDGE_CURVE('',#97,#98,#83,.T.);
#120=EDGE_CURVE('',#98,#98,#84,.T.);
#121=ORIENTED_EDGE('',*,*,#99,.T.);
#122=ORIENTED_EDGE('',*,*,#100,.T.);
#123=ORIENTED_EDGE('',*,*,#101,.F.);
#124=ORIENTED_EDGE('',*,*,#102,.F.);
#125=ORIENTED_EDGE('',*,*,#100,.F.);
#126=ORIENTED_EDGE('',*,*,#101,.T.);
#127=ORIENTED_EDGE('',*,*,#103,.T.);
#128=ORIENTED_EDGE('',*,*,#104,.T.);
#129=ORIENTED_EDGE('',*,*,#105,.T.);
#130=ORIENTED_EDGE('',*,*,#103,.F.);
#131=ORIENTED_EDGE('',*,*,#102,.T.);
#132=ORIENTED_EDGE('',*,*,#105,.F.);
#133=ORIENTED_EDGE('',*,*,#104,.F.);
#134=ORIENTED_EDGE('',*,*,#106,.T.);
#135=ORIENTED_EDGE('',*,*,#107,.T.);
#136=ORIENTED_EDGE('',*,*,#106,.F.);
#137=ORIENTED_EDGE('',*,*,#108,.F.);
#138=ORIENTED_EDGE('',*,*,#109,.T.);
#139=ORIENTED_EDGE('',*,*,#110,.F.);
#140=ORIENTED_EDGE('',*,*,#109,.F.);
#141=ORIENTED_EDGE('',*,*,#99,.F.);
#142=ORIENTED_EDGE('',*,*,#111,.T.);
#143=ORIENTED_EDGE('',*,*,#112,.F.);
#144=ORIENTED_EDGE('',*,*,#111,.F.);
#145=ORIENTED_EDGE('',*,*,#112,.T.);
#146=ORIENTED_EDGE('',*,*,#110,.T.);
#147=ORIENTED_EDGE('',*,*,#113,.T.);
#148=ORIENTED_EDGE('',*,*,#114,.T.);
#149=ORIENTED_EDGE('',*,*,#115,.T.);
#150=ORIENTED_EDGE('',*,*,#114,.F.);
#151=ORIENTED_EDGE('',*,*,#107,.F.);
#152=ORIENTED_EDGE('',*,*,#116,.T.);
#153=ORIENTED_EDGE('',*,*,#117,.T.);
#154=ORIENTED_EDGE('',*,*,#116,.F.);
#155=ORIENTED_EDGE('',*,*,#117,.F.);
#156=ORIENTED_EDGE('',*,*,#115,.F.);
#157=ORIENTED_EDGE('',*,*,#118,.F.);
#158=ORIENTED_EDGE('',*,*,#119,.T.);
#159=ORIENTED_EDGE('',*,*,#120,.T.);
#160=ORIENTED_EDGE('',*,*,#119,.F.);
#161=ORIENTED_EDGE('',*,*,#108,.T.);
#162=ORIENTED_EDGE('',*,*,#118,.T.);
#163=ORIENTED_EDGE('',*,*,#113,.F.);
#164=ORIENTED_EDGE('',*,*,#120,.F.);
#165=CONICAL_SURFACE('',#199,66.2192632016918,0.785398163397437);
#166=CONICAL_SURFACE('',#203,66.2192632016917,0.785398163397448);
#167=ADVANCED_FACE('',(#29),#165,.T.);
#168=ADVANCED_FACE('',(#30),#27,.T.);
#169=ADVANCED_FACE('',(#31),#166,.T.);
#170=ADVANCED_FACE('',(#32),#23,.F.);
#171=ADVANCED_FACE('',(#33),#24,.T.);
#172=ADVANCED_FACE('',(#34,#15),#19,.T.);
#173=ADVANCED_FACE('',(#35),#25,.F.);
#174=ADVANCED_FACE('',(#36),#26,.T.);
#175=ADVANCED_FACE('',(#37,#16),#20,.F.);
#176=ADVANCED_FACE('',(#38),#28,.F.);
#177=ADVANCED_FACE('',(#39,#17),#21,.T.);
#178=ADVANCED_FACE('',(#40,#18),#22,.F.);
#179=CLOSED_SHELL('',(#167,#168,#169,#170,#171,#172,#173,#174,#175,#176,
#177,#178));
#180=DERIVED_UNIT_ELEMENT(#182,1.);
#181=DERIVED_UNIT_ELEMENT(#409,-3.);
#182=(
MASS_UNIT()
NAMED_UNIT(*)
SI_UNIT($,.GRAM.)
);
#183=DERIVED_UNIT((#180,#181));
#184=MEASURE_REPRESENTATION_ITEM('density measure',
POSITIVE_RATIO_MEASURE(1.),#183);
#185=PROPERTY_DEFINITION_REPRESENTATION(#190,#187);
#186=PROPERTY_DEFINITION_REPRESENTATION(#191,#188);
#187=REPRESENTATION('material name',(#189),#406);
#188=REPRESENTATION('density',(#184),#406);
#189=DESCRIPTIVE_REPRESENTATION_ITEM('PVC','PVC');
#190=PROPERTY_DEFINITION('material property','material name',#416);
#191=PROPERTY_DEFINITION('material property','density of part',#416);
#192=DATE_TIME_ROLE('creation_date');
#193=APPLIED_DATE_AND_TIME_ASSIGNMENT(#194,#192,(#416));
#194=DATE_AND_TIME(#195,#196);
#195=CALENDAR_DATE(2021,19,10);
#196=LOCAL_TIME(0,0,0.,#197);
#197=COORDINATED_UNIVERSAL_TIME_OFFSET(0,0,.BEHIND.);
#198=AXIS2_PLACEMENT_3D('placement',#279,#223,#224);
#199=AXIS2_PLACEMENT_3D('',#280,#225,#226);
#200=AXIS2_PLACEMENT_3D('',#282,#227,#228);
#201=AXIS2_PLACEMENT_3D('',#326,#230,#231);
#202=AXIS2_PLACEMENT_3D('',#328,#232,#233);
#203=AXIS2_PLACEMENT_3D('',#370,#234,#235);
#204=AXIS2_PLACEMENT_3D('',#373,#237,#238);
#205=AXIS2_PLACEMENT_3D('',#374,#239,#240);
#206=AXIS2_PLACEMENT_3D('',#376,#241,#242);
#207=AXIS2_PLACEMENT_3D('',#379,#244,#245);
#208=AXIS2_PLACEMENT_3D('',#380,#246,#247);
#209=AXIS2_PLACEMENT_3D('',#383,#249,#250);
#210=AXIS2_PLACEMENT_3D('',#384,#251,#252);
#211=AXIS2_PLACEMENT_3D('',#385,#253,#254);
#212=AXIS2_PLACEMENT_3D('',#387,#255,#256);
#213=AXIS2_PLACEMENT_3D('',#390,#258,#259);
#214=AXIS2_PLACEMENT_3D('',#391,#260,#261);
#215=AXIS2_PLACEMENT_3D('',#394,#263,#264);
#216=AXIS2_PLACEMENT_3D('',#395,#265,#266);
#217=AXIS2_PLACEMENT_3D('',#396,#267,#268);
#218=AXIS2_PLACEMENT_3D('',#398,#269,#270);
#219=AXIS2_PLACEMENT_3D('',#400,#271,#272);
#220=AXIS2_PLACEMENT_3D('',#401,#273,#274);
#221=AXIS2_PLACEMENT_3D('',#402,#275,#276);
#222=AXIS2_PLACEMENT_3D('',#403,#277,#278);
#223=DIRECTION('axis',(0.,0.,1.));
#224=DIRECTION('refdir',(1.,0.,0.));
#225=DIRECTION('center_axis',(0.25881904510252,0.965925826289068,0.));
#226=DIRECTION('ref_axis',(-0.965925826289068,0.25881904510252,0.));
#227=DIRECTION('center_axis',(-0.25881904510252,-0.965925826289069,0.));
#228=DIRECTION('ref_axis',(-0.965925826289068,0.25881904510252,0.));
#229=DIRECTION('',(-0.866025403784433,-0.50000000000001,8.65956056235484E-17));
#230=DIRECTION('center_axis',(0.,0.,-1.));
#231=DIRECTION('ref_axis',(-1.,0.,0.));
#232=DIRECTION('center_axis',(0.,0.,1.));
#233=DIRECTION('ref_axis',(-1.,0.,0.));
#234=DIRECTION('center_axis',(0.,-1.,0.));
#235=DIRECTION('ref_axis',(-1.,0.,0.));
#236=DIRECTION('',(0.707106781186547,-0.707106781186547,-8.65956056235493E-17));
#237=DIRECTION('center_axis',(0.,1.,0.));
#238=DIRECTION('ref_axis',(-1.,0.,0.));
#239=DIRECTION('center_axis',(-0.25881904510252,-0.965925826289068,0.));
#240=DIRECTION('ref_axis',(0.965925826289068,-0.25881904510252,0.));
#241=DIRECTION('center_axis',(0.258819045102521,0.965925826289068,0.));
#242=DIRECTION('ref_axis',(-0.965925826289068,0.258819045102521,0.));
#243=DIRECTION('',(0.25881904510252,0.965925826289068,0.));
#244=DIRECTION('center_axis',(-0.25881904510252,-0.965925826289069,0.));
#245=DIRECTION('ref_axis',(0.965925826289068,-0.25881904510252,0.));
#246=DIRECTION('center_axis',(-0.25881904510252,-0.965925826289068,0.));
#247=DIRECTION('ref_axis',(-0.965925826289068,0.25881904510252,0.));
#248=DIRECTION('',(0.25881904510252,0.965925826289068,0.));
#249=DIRECTION('center_axis',(0.25881904510252,0.965925826289069,0.));
#250=DIRECTION('ref_axis',(-0.965925826289068,0.25881904510252,0.));
#251=DIRECTION('center_axis',(0.25881904510252,0.965925826289069,0.));
#252=DIRECTION('ref_axis',(0.,0.,1.));
#253=DIRECTION('center_axis',(0.,1.,0.));
#254=DIRECTION('ref_axis',(1.,0.,0.));
#255=DIRECTION('center_axis',(4.24141237334796E-16,1.,0.));
#256=DIRECTION('ref_axis',(-1.,4.24141237334796E-16,0.));
#257=DIRECTION('',(0.,-1.,0.));
#258=DIRECTION('center_axis',(0.,-1.,0.));
#259=DIRECTION('ref_axis',(1.,0.,0.));
#260=DIRECTION('center_axis',(0.,1.,0.));
#261=DIRECTION('ref_axis',(-1.,0.,0.));
#262=DIRECTION('',(0.,-1.,0.));
#263=DIRECTION('center_axis',(0.,1.,0.));
#264=DIRECTION('ref_axis',(-1.,0.,0.));
#265=DIRECTION('center_axis',(0.,1.,0.));
#266=DIRECTION('ref_axis',(0.,0.,1.));
#267=DIRECTION('center_axis',(0.,0.,-1.));
#268=DIRECTION('ref_axis',(-1.,0.,0.));
#269=DIRECTION('center_axis',(-0.258819045102521,-0.965925826289068,0.));
#270=DIRECTION('ref_axis',(0.965925826289068,-0.258819045102521,0.));
#271=DIRECTION('center_axis',(0.,0.,1.));
#272=DIRECTION('ref_axis',(-1.,0.,0.));
#273=DIRECTION('center_axis',(-4.24141237334796E-16,-1.,0.));
#274=DIRECTION('ref_axis',(1.,-4.24141237334796E-16,0.));
#275=DIRECTION('center_axis',(0.258819045102521,0.965925826289068,0.));
#276=DIRECTION('ref_axis',(0.,0.,1.));
#277=DIRECTION('center_axis',(4.24141237334796E-16,1.,0.));
#278=DIRECTION('ref_axis',(0.,0.,1.));
#279=CARTESIAN_POINT('',(0.,0.,0.));
#280=CARTESIAN_POINT('Origin',(12.7388827025114,179.542157477433,0.));
#281=CARTESIAN_POINT('',(81.3322172306683,165.076735636144,-8.57252759403147E-15));
#282=CARTESIAN_POINT('Origin',(13.7174093904335,183.19406879332,0.));
#283=CARTESIAN_POINT('',(72.2457574323894,159.830665625626,-9.38309231043726E-15));
#284=CARTESIAN_POINT('',(76.7017792268589,162.403351008178,-8.1095208721848E-15));
#285=CARTESIAN_POINT('',(-48.5506291938708,192.050525942877,0.));
#286=CARTESIAN_POINT('Ctrl Pts',(-48.5506291938707,192.050525942877,1.11022302462516E-15));
#287=CARTESIAN_POINT('Ctrl Pts',(-48.5506291938707,192.050525942877,-4.60810658133257));
#288=CARTESIAN_POINT('Ctrl Pts',(-48.0581909135512,191.919033327489,-9.20209954036197));
#289=CARTESIAN_POINT('Ctrl Pts',(-46.106732841417,191.397963867064,-18.1927510275269));
#290=CARTESIAN_POINT('Ctrl Pts',(-44.6539942005934,191.0100643189,-22.561954707006));
#291=CARTESIAN_POINT('Ctrl Pts',(-39.3854216838667,189.603359766569,-34.0881892587282));
#292=CARTESIAN_POINT('Ctrl Pts',(-34.6620444767619,188.342279230969,-40.6989056122598));
#293=CARTESIAN_POINT('Ctrl Pts',(-23.0297908727954,185.237119284259,-51.6742233326415));
#294=CARTESIAN_POINT('Ctrl Pts',(-16.2317239133512,183.422628197818,-55.9330065755572));
#295=CARTESIAN_POINT('Ctrl Pts',(-1.44103182049417,179.475649056106,-61.5109789443403));
#296=CARTESIAN_POINT('Ctrl Pts',(6.40988822943232,177.380985652558,-62.7771298531093));
#297=CARTESIAN_POINT('Ctrl Pts',(22.1331973672718,173.186978809557,-62.1218447312165));
#298=CARTESIAN_POINT('Ctrl Pts',(29.8553886197066,171.127704215602,-60.2088840146443));
#299=CARTESIAN_POINT('Ctrl Pts',(44.1497760863985,167.316776372039,-53.4307083876817));
#300=CARTESIAN_POINT('Ctrl Pts',(50.5868198494953,165.601148750934,-48.6330099798554));
#301=CARTESIAN_POINT('Ctrl Pts',(61.3215555612335,162.740638968806,-36.7582668649012));
#302=CARTESIAN_POINT('Ctrl Pts',(65.5177560852629,161.622782971548,-29.7953832131714));
#303=CARTESIAN_POINT('Ctrl Pts',(70.9128412398156,160.185659364753,-15.1022552816015));
#304=CARTESIAN_POINT('Ctrl Pts',(72.2457574323894,159.830665625626,-7.58018269168242));
#305=CARTESIAN_POINT('Ctrl Pts',(72.2457574323894,159.830665625626,-6.66133814775094E-15));
#306=CARTESIAN_POINT('Ctrl Pts',(72.2457574323894,159.830665625626,-1.23512311489549E-14));
#307=CARTESIAN_POINT('Ctrl Pts',(72.2457574323894,159.830665625626,0.545137982226359));
#308=CARTESIAN_POINT('Ctrl Pts',(72.2388640922296,159.832501624166,1.09057650645479));
#309=CARTESIAN_POINT('Ctrl Pts',(72.0189703655831,159.891069016333,9.77830352650661));
#310=CARTESIAN_POINT('Ctrl Pts',(70.276552752838,160.35512637748,17.8006302522219));
#311=CARTESIAN_POINT('Ctrl Pts',(63.914452533043,162.049902448336,32.7047208094062));
#312=CARTESIAN_POINT('Ctrl Pts',(59.3545025896878,163.264728183613,39.4429783563494));
#313=CARTESIAN_POINT('Ctrl Pts',(47.9963639462184,166.291547679134,50.7257017933529));
#314=CARTESIAN_POINT('Ctrl Pts',(41.3080154032918,168.074286941764,55.1632995901012));
#315=CARTESIAN_POINT('Ctrl Pts',(26.6699193467233,171.977129911741,61.131676077159));
#316=CARTESIAN_POINT('Ctrl Pts',(18.8609089993574,174.059712543804,62.6077598686647));
#317=CARTESIAN_POINT('Ctrl Pts',(3.14006927152886,178.253340068523,62.3800559205581));
#318=CARTESIAN_POINT('Ctrl Pts',(-4.62177373083624,180.324367587694,60.6800785290864));
#319=CARTESIAN_POINT('Ctrl Pts',(-19.0788545619295,184.182523732445,54.2990436728332));
#320=CARTESIAN_POINT('Ctrl Pts',(-25.6362945356789,185.932868309885,49.6792732443657));
#321=CARTESIAN_POINT('Ctrl Pts',(-36.6736449107299,188.879327211889,38.0987980442326));
#322=CARTESIAN_POINT('Ctrl Pts',(-41.0478183138999,190.047206938326,31.2483620073878));
#323=CARTESIAN_POINT('Ctrl Pts',(-47.0153009316095,191.640548881143,16.1955524841513));
#324=CARTESIAN_POINT('Ctrl Pts',(-48.5506291938707,192.050525942877,8.13668913212102));
#325=CARTESIAN_POINT('Ctrl Pts',(-48.5506291938707,192.050525942877,0.));
#326=CARTESIAN_POINT('Origin',(402.57496797443,79.,0.));
#327=CARTESIAN_POINT('',(62.5809366419681,86.4190633580319,8.26791334583611E-15));
#328=CARTESIAN_POINT('Origin',(402.57496797443,79.,7.65404249467096E-15));
#329=CARTESIAN_POINT('',(-62.4385264033835,86.5614735966165,0.));
#330=CARTESIAN_POINT('Ctrl Pts',(62.5809366419681,86.4190633580319,1.33226762955019E-14));
#331=CARTESIAN_POINT('Ctrl Pts',(62.5809366419681,86.4190633580319,-1.07832575671047));
#332=CARTESIAN_POINT('Ctrl Pts',(62.5530243930445,86.4191051893876,-2.15767047620619));
#333=CARTESIAN_POINT('Ctrl Pts',(62.0684981633479,86.419830873658,-11.4985366501832));
#334=CARTESIAN_POINT('Ctrl Pts',(60.0035779426696,86.4229469290909,-19.5932530910261));
#335=CARTESIAN_POINT('Ctrl Pts',(52.8459673537019,86.4333454691074,-34.4985927830131));
#336=CARTESIAN_POINT('Ctrl Pts',(47.8277386383695,86.4404998038256,-41.1638393147114));
#337=CARTESIAN_POINT('Ctrl Pts',(35.4846869098344,86.4571843109772,-52.1615551138441));
#338=CARTESIAN_POINT('Ctrl Pts',(28.2795565787985,86.4665353680276,-56.3834035725228));
#339=CARTESIAN_POINT('Ctrl Pts',(12.882859191229,86.485383996487,-61.6959825771886));
#340=CARTESIAN_POINT('Ctrl Pts',(4.87068119886196,86.4946929809874,-62.8289348927603));
#341=CARTESIAN_POINT('Ctrl Pts',(-11.0071207149582,86.5121974033195,-62.0135270387497));
#342=CARTESIAN_POINT('Ctrl Pts',(-18.730766529771,86.5202593680881,-60.1247455983986));
#343=CARTESIAN_POINT('Ctrl Pts',(-33.0437818468684,86.5345939452913,-53.588431068));
#344=CARTESIAN_POINT('Ctrl Pts',(-39.509589990804,86.5407531244689,-49.0085106977412));
#345=CARTESIAN_POINT('Ctrl Pts',(-50.457670123363,86.550905615697,-37.64015607086));
#346=CARTESIAN_POINT('Ctrl Pts',(-54.8210432557337,86.5547920519899,-30.9342115877783));
#347=CARTESIAN_POINT('Ctrl Pts',(-60.8679815470078,86.5601246579752,-16.1015108191732));
#348=CARTESIAN_POINT('Ctrl Pts',(-62.4385264033835,86.5614735966165,-8.08898670569369));
#349=CARTESIAN_POINT('Ctrl Pts',(-62.4385264033835,86.5614735966165,4.44089209850063E-15));
#350=CARTESIAN_POINT('Ctrl Pts',(-62.4385264033835,86.5614735966165,-1.11022302462516E-15));
#351=CARTESIAN_POINT('Ctrl Pts',(-62.4385264033835,86.5614735966165,5.00417378023023));
#352=CARTESIAN_POINT('Ctrl Pts',(-61.8374533865066,86.5609546291935,9.9902704905687));
#353=CARTESIAN_POINT('Ctrl Pts',(-59.485574236916,86.5589030855989,19.603400839916));
#354=CARTESIAN_POINT('Ctrl Pts',(-57.7688521551399,86.5574002119763,24.2027742193948));
#355=CARTESIAN_POINT('Ctrl Pts',(-51.7536030689664,86.5520485305619,35.9129900129155));
#356=CARTESIAN_POINT('Ctrl Pts',(-46.5502119733363,86.5473520746303,42.4481201101304));
#357=CARTESIAN_POINT('Ctrl Pts',(-33.901840357151,86.5353999269899,53.112259356315));
#358=CARTESIAN_POINT('Ctrl Pts',(-26.5819777150263,86.5282535435108,57.1361393700673));
#359=CARTESIAN_POINT('Ctrl Pts',(-10.7480969982271,86.5119144374449,62.1174904653187));
#360=CARTESIAN_POINT('Ctrl Pts',(-2.38475755270615,86.5028610747407,63.0043549583171));
#361=CARTESIAN_POINT('Ctrl Pts',(13.9615137631602,86.484114402393,61.4717109716207));
#362=CARTESIAN_POINT('Ctrl Pts',(21.7942687826099,86.4746195638808,59.1598854694757));
#363=CARTESIAN_POINT('Ctrl Pts',(35.913860651599,86.4566438401899,51.7996906224341));
#364=CARTESIAN_POINT('Ctrl Pts',(42.1172527278077,86.4483061769021,46.9062163070313));
#365=CARTESIAN_POINT('Ctrl Pts',(52.3261436763221,86.4341285498339,35.1599785021177));
#366=CARTESIAN_POINT('Ctrl Pts',(56.2710669754058,86.4283944823495,28.4347287465994));
#367=CARTESIAN_POINT('Ctrl Pts',(61.3344602126521,86.4209473116288,14.3658086898598));
#368=CARTESIAN_POINT('Ctrl Pts',(62.5809366419681,86.4190633580319,7.20565401908593));
#369=CARTESIAN_POINT('Ctrl Pts',(62.5809366419681,86.4190633580319,1.33226762955019E-14));
#370=CARTESIAN_POINT('Origin',(0.,82.7807367983083,0.));
#371=CARTESIAN_POINT('',(70.,79.,-8.57252759403147E-15));
#372=CARTESIAN_POINT('',(66.2192632016917,82.7807367983083,-8.10952087218479E-15));
#373=CARTESIAN_POINT('Origin',(0.,79.,0.));
#374=CARTESIAN_POINT('Origin',(34.1641139535326,259.502209070156,0.));
#375=CARTESIAN_POINT('',(-46.6529547526333,199.370259112228,0.));
#376=CARTESIAN_POINT('Origin',(13.7174093904335,183.19406879332,0.));
#377=CARTESIAN_POINT('',(-26.2062501895342,275.678399389064,7.65404249467096E-15));
#378=CARTESIAN_POINT('',(-26.2062501895342,275.678399389064,-7.65404249467096E-15));
#379=CARTESIAN_POINT('Origin',(34.1641139535326,259.502209070156,0.));
#380=CARTESIAN_POINT('Origin',(34.1641139535326,259.502209070156,0.));
#381=CARTESIAN_POINT('',(101.778921793767,241.38487591298,8.57252759403147E-15));
#382=CARTESIAN_POINT('',(101.778921793767,241.38487591298,8.57252759403147E-15));
#383=CARTESIAN_POINT('Origin',(34.1641139535326,259.502209070156,0.));
#384=CARTESIAN_POINT('Origin',(34.1641139535326,259.502209070156,0.));
#385=CARTESIAN_POINT('Origin',(0.,0.,0.));
#386=CARTESIAN_POINT('',(-62.5,79.,7.65404249467096E-15));
#387=CARTESIAN_POINT('Origin',(-1.39664899375665E-30,79.,0.));
#388=CARTESIAN_POINT('',(-62.5,0.,7.65404249467096E-15));
#389=CARTESIAN_POINT('',(-62.5,0.,7.65404249467096E-15));
#390=CARTESIAN_POINT('Origin',(0.,0.,0.));
#391=CARTESIAN_POINT('Origin',(0.,0.,0.));
#392=CARTESIAN_POINT('',(70.,0.,-8.57252759403147E-15));
#393=CARTESIAN_POINT('',(70.,0.,-8.57252759403147E-15));
#394=CARTESIAN_POINT('Origin',(0.,0.,0.));
#395=CARTESIAN_POINT('Origin',(0.,0.,0.));
#396=CARTESIAN_POINT('Origin',(402.57496797443,79.,0.));
#397=CARTESIAN_POINT('',(66.8433298363322,168.959021312681,6.73555739531044E-15));
#398=CARTESIAN_POINT('Origin',(13.7174093904335,183.19406879332,0.));
#399=CARTESIAN_POINT('',(55.,79.,6.73555739531044E-15));
#400=CARTESIAN_POINT('Origin',(402.57496797443,79.,6.73555739531044E-15));
#401=CARTESIAN_POINT('Origin',(-1.39664899375665E-30,79.,0.));
#402=CARTESIAN_POINT('Origin',(13.7174093904335,183.19406879332,0.));
#403=CARTESIAN_POINT('Origin',(-2.5125127297826E-61,79.,0.));
#404=UNCERTAINTY_MEASURE_WITH_UNIT(LENGTH_MEASURE(0.01),#408,
'DISTANCE_ACCURACY_VALUE',
'Maximum model space distance between geometric entities at asserted c
onnectivities');
#405=UNCERTAINTY_MEASURE_WITH_UNIT(LENGTH_MEASURE(0.01),#408,
'DISTANCE_ACCURACY_VALUE',
'Maximum model space distance between geometric entities at asserted c
onnectivities');
#406=(
GEOMETRIC_REPRESENTATION_CONTEXT(3)
GLOBAL_UNCERTAINTY_ASSIGNED_CONTEXT((#404))
GLOBAL_UNIT_ASSIGNED_CONTEXT((#408,#410,#411))
REPRESENTATION_CONTEXT('','3D')
);
#407=(
GEOMETRIC_REPRESENTATION_CONTEXT(3)
GLOBAL_UNCERTAINTY_ASSIGNED_CONTEXT((#405))
GLOBAL_UNIT_ASSIGNED_CONTEXT((#408,#410,#411))
REPRESENTATION_CONTEXT('','3D')
);
#408=(
LENGTH_UNIT()
NAMED_UNIT(*)
SI_UNIT(.MILLI.,.METRE.)
);
#409=(
LENGTH_UNIT()
NAMED_UNIT(*)
SI_UNIT(.CENTI.,.METRE.)
);
#410=(
NAMED_UNIT(*)
PLANE_ANGLE_UNIT()
SI_UNIT($,.RADIAN.)
);
#411=(
NAMED_UNIT(*)
SI_UNIT($,.STERADIAN.)
SOLID_ANGLE_UNIT()
);
#412=SHAPE_DEFINITION_REPRESENTATION(#413,#414);
#413=PRODUCT_DEFINITION_SHAPE('',$,#416);
#414=SHAPE_REPRESENTATION('',(#198),#406);
#415=PRODUCT_DEFINITION_CONTEXT('part definition',#420,'design');
#416=PRODUCT_DEFINITION('KLIIV125','KLIIV125',#417,#415);
#417=PRODUCT_DEFINITION_FORMATION('0',$,#422);
#418=PRODUCT_RELATED_PRODUCT_CATEGORY('KLIIV125','KLIIV125',(#422));
#419=APPLICATION_PROTOCOL_DEFINITION('international standard',
'automotive_design',2009,#420);
#420=APPLICATION_CONTEXT(
'Core Data for Automotive Mechanical Design Process');
#421=PRODUCT_CONTEXT('part definition',#420,'mechanical');
#422=PRODUCT('KLIIV125','KLIIV125','PVC Bend 15\X\B0, \X\D8125, PN12,5',
(#421));
#423=PRESENTATION_STYLE_ASSIGNMENT((#424));
#424=SURFACE_STYLE_USAGE(.BOTH.,#427);
#425=SURFACE_STYLE_RENDERING_WITH_PROPERTIES($,#431,(#426));
#426=SURFACE_STYLE_TRANSPARENT(0.);
#427=SURFACE_SIDE_STYLE('',(#428,#425));
#428=SURFACE_STYLE_FILL_AREA(#429);
#429=FILL_AREA_STYLE('',(#430));
#430=FILL_AREA_STYLE_COLOUR('',#431);
#431=COLOUR_RGB('',0.250980392156863,0.290196078431373,0.329411764705882);
ENDSEC;
END-ISO-10303-21;
