ISO-10303-21;
HEADER;
/* Generated by software containing ST-Developer
 * from STEP Tools, Inc. (www.steptools.com) 
 */

FILE_DESCRIPTION(
/* description */ ('PE100 Eccentric Reduction Long, Ø125-110, SDR17'),
/* implementation_level */ '2;1');

FILE_NAME(
/* name */ 
'REL-EX17-RC-125-110',

/* time_stamp */ '2022-07-06T16:14:56+02:00',
/* author */ ('COAB Solutions'),
/* organization */ ('GPA Flowsystem'),
/* preprocessor_version */ 'ST-DEVELOPER v18.1',
/* originating_system */ 'www.coabsolutions.com',
/* authorisation */ '');

FILE_SCHEMA (('AUTOMOTIVE_DESIGN { 1 0 10303 214 3 1 1 }'));
ENDSEC;

DATA;
#10=MECHANICAL_DESIGN_GEOMETRIC_PRESENTATION_REPRESENTATION('',(#13),#337);
#11=SHAPE_REPRESENTATION_RELATIONSHIP('SRR','None',#344,#12);
#12=ADVANCED_BREP_SHAPE_REPRESENTATION('',(#14),#336);
#13=STYLED_ITEM('',(#353),#14);
#14=MANIFOLD_SOLID_BREP('Solid3',#159);
#15=FACE_BOUND('',#44,.T.);
#16=FACE_BOUND('',#48,.T.);
#17=PLANE('',#195);
#18=PLANE('',#200);
#19=LINE('',#318,#23);
#20=LINE('',#322,#24);
#21=LINE('',#327,#25);
#22=LINE('',#331,#26);
#23=VECTOR('',#229,48.4);
#24=VECTOR('',#234,55.);
#25=VECTOR('',#241,55.1);
#26=VECTOR('',#246,62.5);
#27=CYLINDRICAL_SURFACE('',#191,48.4);
#28=CYLINDRICAL_SURFACE('',#193,55.);
#29=CYLINDRICAL_SURFACE('',#196,55.1);
#30=CYLINDRICAL_SURFACE('',#198,62.5);
#31=FACE_OUTER_BOUND('',#39,.T.);
#32=FACE_OUTER_BOUND('',#40,.T.);
#33=FACE_OUTER_BOUND('',#41,.T.);
#34=FACE_OUTER_BOUND('',#42,.T.);
#35=FACE_OUTER_BOUND('',#43,.T.);
#36=FACE_OUTER_BOUND('',#45,.T.);
#37=FACE_OUTER_BOUND('',#46,.T.);
#38=FACE_OUTER_BOUND('',#47,.T.);
#39=EDGE_LOOP('',(#105,#106,#107,#108,#109,#110,#111,#112,#113,#114));
#40=EDGE_LOOP('',(#115,#116,#117,#118,#119,#120));
#41=EDGE_LOOP('',(#121,#122,#123,#124,#125,#126,#127));
#42=EDGE_LOOP('',(#128,#129,#130,#131,#132));
#43=EDGE_LOOP('',(#133));
#44=EDGE_LOOP('',(#134));
#45=EDGE_LOOP('',(#135,#136,#137,#138,#139,#140,#141));
#46=EDGE_LOOP('',(#142,#143,#144,#145,#146));
#47=EDGE_LOOP('',(#147));
#48=EDGE_LOOP('',(#148));
#49=B_SPLINE_CURVE_WITH_KNOTS('',1,(#276,#277),.UNSPECIFIED.,.F.,.F.,(2,
2),(0.000961224328916155,1.32917417396815),.UNSPECIFIED.);
#50=B_SPLINE_CURVE_WITH_KNOTS('',1,(#310,#311),.UNSPECIFIED.,.F.,.F.,(2,
2),(-1.17322762063969,-0.00107261913778703),.UNSPECIFIED.);
#51=CIRCLE('',#179,55.1);
#52=CIRCLE('',#180,55.1);
#53=CIRCLE('',#181,48.4);
#54=CIRCLE('',#182,48.4);
#55=CIRCLE('',#183,48.4);
#56=CIRCLE('',#184,48.4);
#57=CIRCLE('',#185,55.1);
#58=CIRCLE('',#186,55.1);
#59=CIRCLE('',#187,55.);
#60=CIRCLE('',#188,62.5);
#61=CIRCLE('',#189,62.5);
#62=CIRCLE('',#190,55.);
#63=CIRCLE('',#192,48.4);
#64=CIRCLE('',#194,55.);
#65=CIRCLE('',#197,55.1);
#66=CIRCLE('',#199,62.5);
#67=VERTEX_POINT('',#270);
#68=VERTEX_POINT('',#271);
#69=VERTEX_POINT('',#273);
#70=VERTEX_POINT('',#275);
#71=VERTEX_POINT('',#278);
#72=VERTEX_POINT('',#280);
#73=VERTEX_POINT('',#282);
#74=VERTEX_POINT('',#285);
#75=VERTEX_POINT('',#306);
#76=VERTEX_POINT('',#307);
#77=VERTEX_POINT('',#309);
#78=VERTEX_POINT('',#312);
#79=VERTEX_POINT('',#317);
#80=VERTEX_POINT('',#321);
#81=VERTEX_POINT('',#326);
#82=VERTEX_POINT('',#330);
#83=EDGE_CURVE('',#67,#68,#51,.T.);
#84=EDGE_CURVE('',#68,#69,#52,.T.);
#85=EDGE_CURVE('',#69,#70,#49,.T.);
#86=EDGE_CURVE('',#70,#71,#53,.T.);
#87=EDGE_CURVE('',#71,#72,#54,.T.);
#88=EDGE_CURVE('',#72,#73,#55,.T.);
#89=EDGE_CURVE('',#73,#70,#56,.T.);
#90=EDGE_CURVE('',#69,#74,#57,.T.);
#91=EDGE_CURVE('',#74,#67,#58,.T.);
#92=EDGE_CURVE('',#75,#76,#59,.T.);
#93=EDGE_CURVE('',#76,#77,#50,.T.);
#94=EDGE_CURVE('',#77,#78,#60,.T.);
#95=EDGE_CURVE('',#78,#77,#61,.T.);
#96=EDGE_CURVE('',#76,#75,#62,.T.);
#97=EDGE_CURVE('',#71,#79,#19,.T.);
#98=EDGE_CURVE('',#79,#79,#63,.T.);
#99=EDGE_CURVE('',#75,#80,#20,.T.);
#100=EDGE_CURVE('',#80,#80,#64,.T.);
#101=EDGE_CURVE('',#68,#81,#21,.T.);
#102=EDGE_CURVE('',#81,#81,#65,.T.);
#103=EDGE_CURVE('',#78,#82,#22,.T.);
#104=EDGE_CURVE('',#82,#82,#66,.T.);
#105=ORIENTED_EDGE('',*,*,#83,.T.);
#106=ORIENTED_EDGE('',*,*,#84,.T.);
#107=ORIENTED_EDGE('',*,*,#85,.T.);
#108=ORIENTED_EDGE('',*,*,#86,.T.);
#109=ORIENTED_EDGE('',*,*,#87,.T.);
#110=ORIENTED_EDGE('',*,*,#88,.T.);
#111=ORIENTED_EDGE('',*,*,#89,.T.);
#112=ORIENTED_EDGE('',*,*,#85,.F.);
#113=ORIENTED_EDGE('',*,*,#90,.T.);
#114=ORIENTED_EDGE('',*,*,#91,.T.);
#115=ORIENTED_EDGE('',*,*,#92,.T.);
#116=ORIENTED_EDGE('',*,*,#93,.T.);
#117=ORIENTED_EDGE('',*,*,#94,.T.);
#118=ORIENTED_EDGE('',*,*,#95,.T.);
#119=ORIENTED_EDGE('',*,*,#93,.F.);
#120=ORIENTED_EDGE('',*,*,#96,.T.);
#121=ORIENTED_EDGE('',*,*,#89,.F.);
#122=ORIENTED_EDGE('',*,*,#88,.F.);
#123=ORIENTED_EDGE('',*,*,#87,.F.);
#124=ORIENTED_EDGE('',*,*,#97,.T.);
#125=ORIENTED_EDGE('',*,*,#98,.F.);
#126=ORIENTED_EDGE('',*,*,#97,.F.);
#127=ORIENTED_EDGE('',*,*,#86,.F.);
#128=ORIENTED_EDGE('',*,*,#92,.F.);
#129=ORIENTED_EDGE('',*,*,#99,.T.);
#130=ORIENTED_EDGE('',*,*,#100,.F.);
#131=ORIENTED_EDGE('',*,*,#99,.F.);
#132=ORIENTED_EDGE('',*,*,#96,.F.);
#133=ORIENTED_EDGE('',*,*,#100,.T.);
#134=ORIENTED_EDGE('',*,*,#98,.T.);
#135=ORIENTED_EDGE('',*,*,#83,.F.);
#136=ORIENTED_EDGE('',*,*,#91,.F.);
#137=ORIENTED_EDGE('',*,*,#90,.F.);
#138=ORIENTED_EDGE('',*,*,#84,.F.);
#139=ORIENTED_EDGE('',*,*,#101,.T.);
#140=ORIENTED_EDGE('',*,*,#102,.T.);
#141=ORIENTED_EDGE('',*,*,#101,.F.);
#142=ORIENTED_EDGE('',*,*,#95,.F.);
#143=ORIENTED_EDGE('',*,*,#103,.T.);
#144=ORIENTED_EDGE('',*,*,#104,.T.);
#145=ORIENTED_EDGE('',*,*,#103,.F.);
#146=ORIENTED_EDGE('',*,*,#94,.F.);
#147=ORIENTED_EDGE('',*,*,#104,.F.);
#148=ORIENTED_EDGE('',*,*,#102,.F.);
#149=(
BOUNDED_SURFACE()
B_SPLINE_SURFACE(1,2,((#252,#253,#254,#255,#256,#257,#258,#259,#260),(#261,
#262,#263,#264,#265,#266,#267,#268,#269)),.UNSPECIFIED.,.F.,.T.,.F.)
B_SPLINE_SURFACE_WITH_KNOTS((2,2),(3,2,2,2,3),(-0.102471652144696,1.42130904080407),
(-3.14159265358979,-1.5707963267949,0.,1.5707963267949,3.14159265358979),
 .UNSPECIFIED.)
GEOMETRIC_REPRESENTATION_ITEM()
RATIONAL_B_SPLINE_SURFACE(((1.,0.707106781186548,1.,0.707106781186548,1.,
0.707106781186548,1.,0.707106781186548,1.),(1.,0.707106781186548,1.,0.707106781186548,
1.,0.707106781186548,1.,0.707106781186548,1.)))
REPRESENTATION_ITEM('')
SURFACE()
);
#150=(
BOUNDED_SURFACE()
B_SPLINE_SURFACE(1,2,((#288,#289,#290,#291,#292,#293,#294,#295,#296),(#297,
#298,#299,#300,#301,#302,#303,#304,#305)),.UNSPECIFIED.,.F.,.T.,.F.)
B_SPLINE_SURFACE_WITH_KNOTS((2,2),(3,2,2,2,3),(-0.105295456626726,1.26236429832028),
(-3.14159265358979,-1.5707963267949,0.,1.5707963267949,3.14159265358979),
 .UNSPECIFIED.)
GEOMETRIC_REPRESENTATION_ITEM()
RATIONAL_B_SPLINE_SURFACE(((1.,0.707106781186548,1.,0.707106781186548,1.,
0.707106781186548,1.,0.707106781186548,1.),(1.,0.707106781186548,1.,0.707106781186548,
1.,0.707106781186548,1.,0.707106781186548,1.)))
REPRESENTATION_ITEM('')
SURFACE()
);
#151=ADVANCED_FACE('',(#31),#149,.T.);
#152=ADVANCED_FACE('',(#32),#150,.F.);
#153=ADVANCED_FACE('',(#33),#27,.F.);
#154=ADVANCED_FACE('',(#34),#28,.T.);
#155=ADVANCED_FACE('',(#35,#15),#17,.T.);
#156=ADVANCED_FACE('',(#36),#29,.F.);
#157=ADVANCED_FACE('',(#37),#30,.T.);
#158=ADVANCED_FACE('',(#38,#16),#18,.F.);
#159=CLOSED_SHELL('',(#151,#152,#153,#154,#155,#156,#157,#158));
#160=DERIVED_UNIT_ELEMENT(#162,1.);
#161=DERIVED_UNIT_ELEMENT(#339,-3.);
#162=(
MASS_UNIT()
NAMED_UNIT(*)
SI_UNIT($,.GRAM.)
);
#163=DERIVED_UNIT((#160,#161));
#164=MEASURE_REPRESENTATION_ITEM('density measure',
POSITIVE_RATIO_MEASURE(1.),#163);
#165=PROPERTY_DEFINITION_REPRESENTATION(#170,#167);
#166=PROPERTY_DEFINITION_REPRESENTATION(#171,#168);
#167=REPRESENTATION('material name',(#169),#336);
#168=REPRESENTATION('density',(#164),#336);
#169=DESCRIPTIVE_REPRESENTATION_ITEM('PE','PE');
#170=PROPERTY_DEFINITION('material property','material name',#346);
#171=PROPERTY_DEFINITION('material property','density of part',#346);
#172=DATE_TIME_ROLE('creation_date');
#173=APPLIED_DATE_AND_TIME_ASSIGNMENT(#174,#172,(#346));
#174=DATE_AND_TIME(#175,#176);
#175=CALENDAR_DATE(2021,19,10);
#176=LOCAL_TIME(0,0,0.,#177);
#177=COORDINATED_UNIVERSAL_TIME_OFFSET(0,0,.BEHIND.);
#178=AXIS2_PLACEMENT_3D('placement',#251,#201,#202);
#179=AXIS2_PLACEMENT_3D('',#272,#203,#204);
#180=AXIS2_PLACEMENT_3D('',#274,#205,#206);
#181=AXIS2_PLACEMENT_3D('',#279,#207,#208);
#182=AXIS2_PLACEMENT_3D('',#281,#209,#210);
#183=AXIS2_PLACEMENT_3D('',#283,#211,#212);
#184=AXIS2_PLACEMENT_3D('',#284,#213,#214);
#185=AXIS2_PLACEMENT_3D('',#286,#215,#216);
#186=AXIS2_PLACEMENT_3D('',#287,#217,#218);
#187=AXIS2_PLACEMENT_3D('',#308,#219,#220);
#188=AXIS2_PLACEMENT_3D('',#313,#221,#222);
#189=AXIS2_PLACEMENT_3D('',#314,#223,#224);
#190=AXIS2_PLACEMENT_3D('',#315,#225,#226);
#191=AXIS2_PLACEMENT_3D('',#316,#227,#228);
#192=AXIS2_PLACEMENT_3D('',#319,#230,#231);
#193=AXIS2_PLACEMENT_3D('',#320,#232,#233);
#194=AXIS2_PLACEMENT_3D('',#323,#235,#236);
#195=AXIS2_PLACEMENT_3D('',#324,#237,#238);
#196=AXIS2_PLACEMENT_3D('',#325,#239,#240);
#197=AXIS2_PLACEMENT_3D('',#328,#242,#243);
#198=AXIS2_PLACEMENT_3D('',#329,#244,#245);
#199=AXIS2_PLACEMENT_3D('',#332,#247,#248);
#200=AXIS2_PLACEMENT_3D('',#333,#249,#250);
#201=DIRECTION('axis',(0.,0.,1.));
#202=DIRECTION('refdir',(1.,0.,0.));
#203=DIRECTION('center_axis',(-1.,0.,0.));
#204=DIRECTION('ref_axis',(0.,-1.,0.));
#205=DIRECTION('center_axis',(-1.,0.,0.));
#206=DIRECTION('ref_axis',(0.,-1.,0.));
#207=DIRECTION('center_axis',(1.,0.,0.));
#208=DIRECTION('ref_axis',(0.,-1.,0.));
#209=DIRECTION('center_axis',(1.,0.,0.));
#210=DIRECTION('ref_axis',(0.,-1.,0.));
#211=DIRECTION('center_axis',(1.,0.,0.));
#212=DIRECTION('ref_axis',(0.,-1.,0.));
#213=DIRECTION('center_axis',(1.,0.,0.));
#214=DIRECTION('ref_axis',(0.,-1.,0.));
#215=DIRECTION('center_axis',(-1.,0.,0.));
#216=DIRECTION('ref_axis',(0.,-1.,0.));
#217=DIRECTION('center_axis',(-1.,0.,0.));
#218=DIRECTION('ref_axis',(0.,-1.,0.));
#219=DIRECTION('center_axis',(-1.,0.,0.));
#220=DIRECTION('ref_axis',(0.,1.,0.));
#221=DIRECTION('center_axis',(1.,0.,0.));
#222=DIRECTION('ref_axis',(0.,1.,0.));
#223=DIRECTION('center_axis',(1.,0.,0.));
#224=DIRECTION('ref_axis',(0.,1.,0.));
#225=DIRECTION('center_axis',(-1.,0.,0.));
#226=DIRECTION('ref_axis',(0.,1.,0.));
#227=DIRECTION('center_axis',(-1.,0.,0.));
#228=DIRECTION('ref_axis',(0.,-1.,0.));
#229=DIRECTION('',(1.,0.,0.));
#230=DIRECTION('center_axis',(-1.,0.,0.));
#231=DIRECTION('ref_axis',(0.,-1.,0.));
#232=DIRECTION('center_axis',(-1.,0.,0.));
#233=DIRECTION('ref_axis',(0.,1.,0.));
#234=DIRECTION('',(1.,0.,0.));
#235=DIRECTION('center_axis',(1.,0.,0.));
#236=DIRECTION('ref_axis',(0.,1.,0.));
#237=DIRECTION('center_axis',(1.,0.,0.));
#238=DIRECTION('ref_axis',(0.,0.,-1.));
#239=DIRECTION('center_axis',(1.,0.,0.));
#240=DIRECTION('ref_axis',(0.,-1.,0.));
#241=DIRECTION('',(-1.,0.,0.));
#242=DIRECTION('center_axis',(-1.,0.,0.));
#243=DIRECTION('ref_axis',(0.,-1.,0.));
#244=DIRECTION('center_axis',(1.,0.,0.));
#245=DIRECTION('ref_axis',(0.,1.,0.));
#246=DIRECTION('',(-1.,0.,0.));
#247=DIRECTION('center_axis',(1.,0.,0.));
#248=DIRECTION('ref_axis',(0.,1.,0.));
#249=DIRECTION('center_axis',(1.,0.,0.));
#250=DIRECTION('ref_axis',(0.,0.,-1.));
#251=CARTESIAN_POINT('',(0.,0.,0.));
#252=CARTESIAN_POINT('Ctrl Pts',(99.8541556748308,7.56229897186631,-55.6193067073613));
#253=CARTESIAN_POINT('Ctrl Pts',(105.5,62.6000000000024,-55.6193067073589));
#254=CARTESIAN_POINT('Ctrl Pts',(105.5,62.6,2.38516758519307E-12));
#255=CARTESIAN_POINT('Ctrl Pts',(105.5,62.5999999999976,55.6193067073637));
#256=CARTESIAN_POINT('Ctrl Pts',(99.8541556748303,7.56229897186156,55.6193067073613));
#257=CARTESIAN_POINT('Ctrl Pts',(94.2083113496609,-47.4754020562745,55.6193067073589));
#258=CARTESIAN_POINT('Ctrl Pts',(94.2083113496612,-47.4754020562721,-2.36740401679907E-12));
#259=CARTESIAN_POINT('Ctrl Pts',(94.2083113496614,-47.4754020562698,-55.6193067073637));
#260=CARTESIAN_POINT('Ctrl Pts',(99.8541556748308,7.56229897186631,-55.6193067073613));
#261=CARTESIAN_POINT('Ctrl Pts',(183.029146754983,-0.969907908392865,-47.9331284728138));
#262=CARTESIAN_POINT('Ctrl Pts',(187.894777008156,46.4619885032322,-47.9331284728118));
#263=CARTESIAN_POINT('Ctrl Pts',(187.894777008156,46.4619885032302,2.05636829120142E-12));
#264=CARTESIAN_POINT('Ctrl Pts',(187.894777008156,46.4619885032281,47.9331284728159));
#265=CARTESIAN_POINT('Ctrl Pts',(183.029146754983,-0.96990790839696,47.9331284728139));
#266=CARTESIAN_POINT('Ctrl Pts',(178.16351650181,-48.401804320022,47.9331284728118));
#267=CARTESIAN_POINT('Ctrl Pts',(178.16351650181,-48.40180432002,-2.03860472280741E-12));
#268=CARTESIAN_POINT('Ctrl Pts',(178.16351650181,-48.4018043200179,-47.9331284728159));
#269=CARTESIAN_POINT('Ctrl Pts',(183.029146754983,-0.969907908392865,-47.9331284728138));
#270=CARTESIAN_POINT('',(105.5,-41.7226666666667,24.7616454667743));
#271=CARTESIAN_POINT('',(105.5,62.6,6.74780386330192E-15));
#272=CARTESIAN_POINT('Origin',(105.5,7.5,0.));
#273=CARTESIAN_POINT('',(105.5,6.98314036697197,-55.0975757735288));
#274=CARTESIAN_POINT('Origin',(105.5,7.5,0.));
#275=CARTESIAN_POINT('',(178.,-0.454011002514639,-48.3978705524282));
#276=CARTESIAN_POINT('Ctrl Pts',(105.5,6.98314036697197,-55.0975757735288));
#277=CARTESIAN_POINT('Ctrl Pts',(178.,-0.454011002514644,-48.3978705524282));
#278=CARTESIAN_POINT('',(178.,48.4,-5.92729050787319E-15));
#279=CARTESIAN_POINT('Origin',(178.,0.,0.));
#280=CARTESIAN_POINT('',(178.,-43.2373333333333,21.7507012811593));
#281=CARTESIAN_POINT('Origin',(178.,0.,0.));
#282=CARTESIAN_POINT('',(178.,-43.2373333333333,-21.7507012811593));
#283=CARTESIAN_POINT('Origin',(178.,0.,0.));
#284=CARTESIAN_POINT('Origin',(178.,0.,0.));
#285=CARTESIAN_POINT('',(105.5,-41.7226666666667,-24.7616454667743));
#286=CARTESIAN_POINT('Origin',(105.5,7.5,0.));
#287=CARTESIAN_POINT('Origin',(105.5,7.5,0.));
#288=CARTESIAN_POINT('Ctrl Pts',(98.9209336793802,7.51855840934538,63.1771244240447));
#289=CARTESIAN_POINT('Ctrl Pts',(92.5212653158115,-55.0000000000046,63.17712442404));
#290=CARTESIAN_POINT('Ctrl Pts',(92.521265315812,-55.,-4.69376607672598E-12));
#291=CARTESIAN_POINT('Ctrl Pts',(92.5212653158125,-54.9999999999953,-63.1771244240494));
#292=CARTESIAN_POINT('Ctrl Pts',(98.9209336793812,7.51855840935475,-63.1771244240447));
#293=CARTESIAN_POINT('Ctrl Pts',(105.32060204295,70.0371168187048,-63.17712442404));
#294=CARTESIAN_POINT('Ctrl Pts',(105.320602042949,70.0371168187001,4.67600250833198E-12));
#295=CARTESIAN_POINT('Ctrl Pts',(105.320602042949,70.0371168186954,63.1771244240494));
#296=CARTESIAN_POINT('Ctrl Pts',(98.9209336793802,7.51855840934538,63.1771244240447));
#297=CARTESIAN_POINT('Ctrl Pts',(183.513271814361,-1.14067692711339,54.4266733230039));
#298=CARTESIAN_POINT('Ctrl Pts',(178.,-55.000000000004,54.4266733229999));
#299=CARTESIAN_POINT('Ctrl Pts',(178.,-55.,-4.04897544550264E-12));
#300=CARTESIAN_POINT('Ctrl Pts',(178.,-54.9999999999959,-54.426673323008));
#301=CARTESIAN_POINT('Ctrl Pts',(183.513271814362,-1.14067692710531,-54.4266733230039));
#302=CARTESIAN_POINT('Ctrl Pts',(189.026543628724,52.7186461457853,-54.4266733229999));
#303=CARTESIAN_POINT('Ctrl Pts',(189.026543628724,52.7186461457813,4.03121187710864E-12));
#304=CARTESIAN_POINT('Ctrl Pts',(189.026543628723,52.7186461457772,54.426673323008));
#305=CARTESIAN_POINT('Ctrl Pts',(183.513271814361,-1.14067692711339,54.4266733230039));
#306=CARTESIAN_POINT('',(178.,-55.,0.));
#307=CARTESIAN_POINT('',(178.,-0.57631472638734,54.9969804747147));
#308=CARTESIAN_POINT('Origin',(178.,0.,0.));
#309=CARTESIAN_POINT('',(105.5,6.84509690183257,62.4965687212667));
#310=CARTESIAN_POINT('Ctrl Pts',(178.,-0.576314726387335,54.9969804747147));
#311=CARTESIAN_POINT('Ctrl Pts',(105.5,6.84509690183258,62.4965687212667));
#312=CARTESIAN_POINT('',(105.5,-55.,0.));
#313=CARTESIAN_POINT('Origin',(105.5,7.5,0.));
#314=CARTESIAN_POINT('Origin',(105.5,7.5,0.));
#315=CARTESIAN_POINT('Origin',(178.,0.,0.));
#316=CARTESIAN_POINT('Origin',(264.,0.,0.));
#317=CARTESIAN_POINT('',(264.,48.4,5.92729050787319E-15));
#318=CARTESIAN_POINT('',(264.,48.4,-5.92729050787319E-15));
#319=CARTESIAN_POINT('Origin',(264.,0.,0.));
#320=CARTESIAN_POINT('Origin',(264.,0.,0.));
#321=CARTESIAN_POINT('',(264.,-55.,6.73555739531044E-15));
#322=CARTESIAN_POINT('',(264.,-55.,6.73555739531044E-15));
#323=CARTESIAN_POINT('Origin',(264.,0.,0.));
#324=CARTESIAN_POINT('Origin',(264.,0.,0.));
#325=CARTESIAN_POINT('Origin',(-6.32709473854045E-16,7.5,0.));
#326=CARTESIAN_POINT('',(-6.32709473854045E-16,62.6,6.74780386330192E-15));
#327=CARTESIAN_POINT('',(-6.32709473854045E-16,62.6,6.74780386330192E-15));
#328=CARTESIAN_POINT('Origin',(-6.32709473854045E-16,7.5,0.));
#329=CARTESIAN_POINT('Origin',(-6.32709473854045E-16,7.5,0.));
#330=CARTESIAN_POINT('',(-6.32709473854045E-16,-55.,-7.65404249467096E-15));
#331=CARTESIAN_POINT('',(-6.32709473854045E-16,-55.,-7.65404249467096E-15));
#332=CARTESIAN_POINT('Origin',(-6.32709473854045E-16,7.5,0.));
#333=CARTESIAN_POINT('Origin',(-6.32709473854045E-16,7.5,0.));
#334=UNCERTAINTY_MEASURE_WITH_UNIT(LENGTH_MEASURE(0.01),#338,
'DISTANCE_ACCURACY_VALUE',
'Maximum model space distance between geometric entities at asserted c
onnectivities');
#335=UNCERTAINTY_MEASURE_WITH_UNIT(LENGTH_MEASURE(0.01),#338,
'DISTANCE_ACCURACY_VALUE',
'Maximum model space distance between geometric entities at asserted c
onnectivities');
#336=(
GEOMETRIC_REPRESENTATION_CONTEXT(3)
GLOBAL_UNCERTAINTY_ASSIGNED_CONTEXT((#334))
GLOBAL_UNIT_ASSIGNED_CONTEXT((#338,#340,#341))
REPRESENTATION_CONTEXT('','3D')
);
#337=(
GEOMETRIC_REPRESENTATION_CONTEXT(3)
GLOBAL_UNCERTAINTY_ASSIGNED_CONTEXT((#335))
GLOBAL_UNIT_ASSIGNED_CONTEXT((#338,#340,#341))
REPRESENTATION_CONTEXT('','3D')
);
#338=(
LENGTH_UNIT()
NAMED_UNIT(*)
SI_UNIT(.MILLI.,.METRE.)
);
#339=(
LENGTH_UNIT()
NAMED_UNIT(*)
SI_UNIT(.CENTI.,.METRE.)
);
#340=(
NAMED_UNIT(*)
PLANE_ANGLE_UNIT()
SI_UNIT($,.RADIAN.)
);
#341=(
NAMED_UNIT(*)
SI_UNIT($,.STERADIAN.)
SOLID_ANGLE_UNIT()
);
#342=SHAPE_DEFINITION_REPRESENTATION(#343,#344);
#343=PRODUCT_DEFINITION_SHAPE('',$,#346);
#344=SHAPE_REPRESENTATION('',(#178),#336);
#345=PRODUCT_DEFINITION_CONTEXT('part definition',#350,'design');
#346=PRODUCT_DEFINITION('REL-EX17-RC-125-110','REL-EX17-RC-125-110',#347,
#345);
#347=PRODUCT_DEFINITION_FORMATION('0',$,#352);
#348=PRODUCT_RELATED_PRODUCT_CATEGORY('REL-EX17-RC-125-110',
'REL-EX17-RC-125-110',(#352));
#349=APPLICATION_PROTOCOL_DEFINITION('international standard',
'automotive_design',2009,#350);
#350=APPLICATION_CONTEXT(
'Core Data for Automotive Mechanical Design Process');
#351=PRODUCT_CONTEXT('part definition',#350,'mechanical');
#352=PRODUCT('REL-EX17-RC-125-110','REL-EX17-RC-125-110',
'PE100 Eccentric Reduction Long, \X\D8125-110, SDR17',(#351));
#353=PRESENTATION_STYLE_ASSIGNMENT((#354));
#354=SURFACE_STYLE_USAGE(.BOTH.,#357);
#355=SURFACE_STYLE_RENDERING_WITH_PROPERTIES($,#361,(#356));
#356=SURFACE_STYLE_TRANSPARENT(0.);
#357=SURFACE_SIDE_STYLE('',(#358,#355));
#358=SURFACE_STYLE_FILL_AREA(#359);
#359=FILL_AREA_STYLE('',(#360));
#360=FILL_AREA_STYLE_COLOUR('',#361);
#361=COLOUR_RGB('',0.109803921568627,0.109803921568627,0.129411764705882);
ENDSEC;
END-ISO-10303-21;
